» » »

12 Stones, Eric's Song Tabs (ver.2)

Artists:  A B C D E F G H I J K L M N O P Q R S T U V W X Y Z # 

Eric's Song Tabs (ver.2)

12 Stones Tabs
 Rating:
4/5 (4 votes)
Eric's Song lessons Tabs too difficult? Try these video lessons and learn fast
1
                Band: 12 Stones
Tuning: Standard

INTRO

E |----------8-7---------8-7--------8-7----------------------------------|
B |---6--6--------6--6--------6----------6--8-6--------------------------|
G |-7--7--7-----7--7--7-----7--7--7----7--7-----7------------------------| (X2)
D |----------------------------------------------------------------------|
A |----------------------------------------------------------------------|
E |----------------------------------------------------------------------|

E |---------------------------------------------------------------------------------|
B |---------------------------------------------------------------------------------|
G |------------------------------------------------------------5-5-5-5--------------|
D |------------------------------------------------------------3-3-3-3--------------|
A |-5-5-5-5-5--8-8-8-8-8/-10-10-10--5-5-5-5-5--3-3-3-3------------------------------|
E |-3-3-3-3-3--6-6-6-6-6/-8--8---8--3-3-3-3-3--1-1-1-1------------------------------|

LEAD

E |---------------------------------------------------------------------------------|
B |---------------------------------------------------------------------------------|
G |-----------------------3-5-3-5b (5)\3--3-----------------------------------------|
D |---------------3--3-5-----------------5--5-3h5-3h5p3-----------------------------|
A |---1-1--1h3/5--5---------------------------------------5-3-3--3-5-3--------------|
E |-/3----3-------------------------------------------------------6----6-3-1/3~~~~~-|

VERSE

E |----------8-7---------8-7----------8-7-------------------------------|
B |---6--6--------6--6---------6--6---------6--8-6----------------------|
G |-7--7--7-----7--7--7-----7--7--7------7--7-----7---------------------| (X2)
D |---------------------------------------------------------------------|
A |---------------------------------------------------------------------|
E |---------------------------------------------------------------------|

E |---------------------------------------------------------------------------------|
B |---------------------------------------------------------------------------------|
G |--------------------------------------------------------5-5------5-5-------------|
D |--------------------------------------------------------3-3------3-3-------------|
A |-5-5-5-5-5--8-8-8-8-8-10-10-10--5-5-5-5-5--3-3------3-3--------------------------|
E |-3-3-3-3-3--6-6-6-6-6--8--8--8--3-3-3-3-3--1-1------1-1--------------------------|
p.m .................................................. ..............................
CHORUS

E |---------------------------------------------------------------------------------|
B |---------------------------------------------------------------------------------|
G |-----------------------------------------------------5-5-5-5---------------------|
D |-----------------------------------------------------3-3-3-3---------------------|
A |-5-5-5-5-5--8-8-8-8-8/-10-10-10--5-5-5-5-5--3-3-3-3------------------------------|
E |-3-3-3-3-3--6-6-6-6-6/--8--8--8--3-3-3-3-3--1-1-1-1------------------------------|

LEAD

E |----------------------------------------------------------|
B |--7b-6h7-6-6-4h6-4-4-2~~~~--------------------------------|
G |----------------------------------------------------------|
D |----------------------------------------------------------|
A |----------------------------------------------------------|
E |----------------------------------------------------------|

FILL

E |-------------------8-7------------------------------------------------|
B |---6--6----6--6---------6-8-6-----------------------------------------|
G |-7--7----7--7--7------7-------7---------------------------------------| (X2)
D |----------------------------------------------------------------------|
A |----------------------------------------------------------------------|
E |----------------------------------------------------------------------|

VERSE

E |----------8-7---------8-7----------8-7-------------------------------|
B |---6--6--------6--6--------6--6---------6--8-6-----------------------|
G |-7--7--7-----7--7--7-----7--7--7------7--7-----7---------------------| (X2)
D |---------------------------------------------------------------------|
A |---------------------------------------------------------------------|
E |---------------------------------------------------------------------|

E |---------------------------------------------------------------------------------|
B |---------------------------------------------------------------------------------|
G |----------------------------------------------------5-5--5-5---------------------|
D |----------------------------------------------------3-3--3-3---------------------|
A |-5-5-5-5-5--8-8-8-8-8-10-10-10--5-5-5-5-5--3-3--3-3------------------------------|
E |-3-3-3-3-3--6-6-6-6-6--8--8--8--3-3-3-3-3--1-1--1-1------------------------------|
p.m .................................................. ..............................
CHORUS

E |----------------------------------------------------------------------------------|
B |----------------------------------------------------------------------------------|
G |------------------------------------------------------------5-5-5-5---------------|
D |------------------------------------------------------------3-3-3-3---------------|
A |-5-5-5-5-5--8-8-8-8-8/-10-10-10--5-5-5-5-5--3-3-3-3-------------------------------|
E |-3-3-3-3-3--6-6-6-6-6/--8--8--8--3-3-3-3-3--1-1-1-1-------------------------------|

Then it goes into the solo but I don't know what he plays right now. Once I do I'll fix 
tab but the rhythm part of the solo is just the chorus.

BRIDGE

E |---------------------------------------------------------------------------------|
B |---------------------------------------------------------------------------------|
G |--------------------------------------------------5-5--5-5-5-5-5-5-5-5-----------|
D |--------------------------------------------------3-3--3-3-3-3-3-3-3-3-----------|
A |-5-5-5-5-5--8-8-8-8-8-10-10-10--5-5-5-5-5--3-3-3---------------------------------|
E |-3-3-3-3-3--6-6-6-6-6--8--8--8--3-3-3-3-3--1-1-1---------------------------------|
p.m .................................................. ..............................

CHORUS

E |--------------------------------------------------------------------------------|
B |--------------------------------------------------------------------------------|
G |----------------------------------------------------5-5-5-5---------------------|
D |----------------------------------------------------3-3-3-3---------------------|
A |-5-5-5-5-5--8-8-8-8-8/-10-10-10--5-5-5-5-5--3-3-3-3-----------------------------|
E |-3-3-3-3-3--6-6-6-6-6/--8--8--8--3-3-3-3-3--1-1-1-1-----------------------------|

Just play the chorus all the way through till the end of the song and then that's it. 
easy song, and the lead parts are really cool, awesome song. Give me any corrections on 
song. Thanks
            
Submit corrections

comments powered by Disqus
↑ Back to top | 12 Stones Tabs for Eric's Song. Lyrics for acoustic guitar and electric guitar. 1 Tablatures and chords are parodies/interpretations of the original songs. You may use it for private study, scholarship, research or language learning purposes only