» » »

Crash Tabs (ver.9)

Artists:  A B C D E F G H I J K L M N O P Q R S T U V W X Y Z # 

Crash Tabs (ver.9)

12 Stones
Rating:
0/5 (0 votes)

Hard to play? Try these video lessons and learn fast.
                Artist- 12 stones
Song- Crash
Tuning- Drop C (CGCfad)

Verse
-----------------------------------------------------------------|
-----------------------------------------------------------------|
-7-----7-----7---10-----10-----10---9-----9-----9----5---4---4---|
---0-0---0-0---0----0-0----0-0----0---0-0---0-0---0----5---5---5-|
-----------------------------------------------------------------|
-----------------------------------------------------------------|

Chorus
---------------------------------------|
-----3-3-------------------------------|
-----2-2-5-5-5-5-----------------------|
-0-0-0-0-5-5-5-5-3-3-3-3-5-5-5---------|
-0-0-0-0-3-3-3-3-3-3-3-3-5-5-5---------|
-0-0-0-0---------3-3-3-3-5-5-5-3~------|

Last repeat of chorus goes like this
-------------------------------------|
-3-3-3-3-----------------------------|
-2-2-2-2-5-5-5-5---------------------|
-0-0-0-0-5-5-5-5-5-5-5-3-3-----------|
-0-0-0-0-3-3-3-3-5-5-5-3-3-----------|
-0-0-0-0---------5-5-5-3-3-----------|
                 pm.......

Riff in Verse 2
---------------------------------------|
---------6h8p6-5h6p5-6p5---------------|
-5h7-5h7-----------------5-----5---5-7-|
---------------------------5h7---7-----|
---------------------------------------|
---------------------------------------|

Bridge
-------------------------------------|
-------------------------------------|
---------5-5-5-----------------------|
-0-0-0-0-x-x-x-----------------------|
-0-0-0-0-3-3-3-----------------------|
-0-0-0-0-----------------------------|

Solo
------------------------------------------------------------------11c-|
----------------8-10-10b-10b--10brp8---8-----8-11-8-11/13-11-13-13----|
-----------8----8-10-10b-10b--10brp8---8---10-------------------------|
-8/10--8-10-10-----------------------10-------------------------------|
----------------------------------------------------------------------|
----------------------------------------------------------------------|
                                                      hold
----------------------11-----11-----11-13-13b-13b-13b-13b--13brp11--11-|
-13-13-11h13p11--11-13--13-13--13-13------------------------------13---|
---------------12------------------------------------------------------|
-----------------------------------------------------------------------|
-----------------------------------------------------------------------|
-----------------------------------------------------------------------|

------------------11---------------------------------------------------|
13-11h13p11--11-13--13--10brp8---8-10brp8--8---------------------------|
-----------12-----------10brp8---8-10brp8--8---------------------------|
------------------------------10---------10---10-8-----------------8---|
--------------------------------------------------10-8/6--6--6-8/10-10-|
---------------------------------------------------------8--8----------|
                                                This bend and release
                                                below is slower than
                                                the other ones
----------------------------------------------------------------------|
---------------------------11--13-11h13p11--11------10br-8-10-8-------|
--10brp8--8-10brp8--8-10/12--12-----------12--12/10-10br-8-10-8-------|
-8------10--------10---------------------------------------------10---|
----------------------------------------------------------------------|
----------------------------------------------------------------------|
            
Hard to play? Try these video lessons and learn fast. | Correct




comments powered by Disqus
↑ Back to top | Tablatures and chords are parodies/interpretations of the original songs. You may use it for private study, scholarship, research or language learning purposes only