>
 >
Crash 1

Crash 1 Guitar Tabs

12 Stones - Crash 1 chords, tabs, tablatures, lyrics

Guitar lessons | Add/correct | Request | Top 50 tabs Artists:  A B C D E F G H I J K L M N O P Q R S T U V W X Y Z 0-9

Crash 1 Guitar Tabs – 12 Stones

CD, Sheet music, Poster

Do you like Crash 1? Share with your friends now
Bass TabsTabsTabs v2Tabs v3Tabs v4Tabs v5Tabs v6Tabs v7Tabs v8
band: 12 Stones

Drop C (CGCFAD)

intro/verse    AS I LIE TOSSING IN MY BED...   
D/-------------------------------------------------------|-------|
A/-------------------------------------------------------|-------|
F/-7---7----7---10----10----10---9----9----9---5--4--5---|-5--4--|
C/--0-0-0-0--0----0-0---0-0---0---0-0--0-0--0---5--5--5--|--5--5-|
G/-------------------------------------------------------|-------|
C/-------------------------------------------------------|-------|

chorus
D/--------------------------------|
A/--------------------------------|play this three times
F/---------5-5-5-5-5--------------|
C/-0-0-0-0-5-5-5-5-5-3-3-3-5-5-5-3|
G/-0-0-0-0-3-3-3-3-3-3-3-3-5-5-5-3|
C/-0-0-0-0-----------3-3-3-5-5-5-3|

then the  fourth time palm mute this
D/----------|
A/----------|
F/----------|
C/-5-5-5-3-3|
G/-5-5-5-3-3|
C/-5-5-5-3-3|

riff in 2nd verse
D/----------------------------------|
A/---------6h8-6-5h6-5-6p5----------|
F/-5/7-5h7----------------5---5-5h7-|
C/-------------------------5h7------|
G/----------------------------------|
C/----------------------------------|

bridge
guitar 1 (palm mute the 0's)
D/----------------------|-13b-|
A/----------------------|-----|
F/----------------------|-----|
C/----------------------|-----|
G/-0-0-0-0-0-0-0-5-3-2-0|-----|
C/-0-0-0-0-0-0-0-5-3-2-0|-----|
guitar 2
---------|
---------|
-5-5-5-5-|
-x-x-x-x-|
-3-3-3-3-|
---------|

Solo
D/-------------------------------------------------------------------------|
A/---------------------------------------------------------10-13b-10-13/15-|
F/-12br14--------11-----11br12-12br-12br-12br-12br10--10-12----------------|
C/-------12-10h12--12-12----------------------------12---------------------|
G/-------------------------------------------------------------------------|
C/-------------------------------------------------------------------------|

---------13b---------------------13-13--13-13-13b-15b-15b-15b-15b-15br13---|
-15-13h15---15-13h15p13--13-15-15-----15--------------------------------15-|
-----------------------14--------------------------------------------------|
---------------------------------------------------------------------------|
---------------------------------------------------------------------------|
---------------------------------------------------------------------------|

-13----------------------------------------------------------------------|
---15-13h15p13--13-15-13-13----------------------------------------------|
--------------14-----------10br12-12br-12br-12-10------------------------|
-------------------------------------------------12-10-------------------|
------------------------------------------------------12-10-8------------|
-------------------------------------------------------------10h12-12h15-|

--------------------------------------------------------------------------|
--------------------------------------------------------------15-15-15-13-|
-----------------10-12br-12br-12br-12-10--10-12-12/14-14-12h14------------|
-----------10-12------------------------12--------------------------------|
------10-12---------------------------------------------------------------|
-12h15--------------------------------------------------------------------|

--------------------------|
-------12-12-12-----------|
-14-12---------14p12------|
--------------------15p12-|
--------------------------|
--------------------------|

check with me for any mistakes





Comments


Popular 12 Stones tabs & chords
Bury Me Chords
It Was You 1 Chords
Bitter 1 Tabs
Broken (Solo) Tabs
Erics Song Tabs
Home Tabs
Last Song Tabs
Let Go 1 Tabs
My Life 2 Tabs
The Way I Feel 6 Tabs


Song lyrics



↑ Back to top | Tablatures and chords are parodies/interpretations of the original songs. You may use it for private study, scholarship, research or language learning purposes only
© 2014 AZChords.com Contact us | Privacy policy | DMCA | Add/correct tabs | Request tabs | Top 50 tabs