» » »

12 Stones, Crash Tabs (ver.1)

Artists:  A B C D E F G H I J K L M N O P Q R S T U V W X Y Z # 

Crash Tabs (ver.1)

12 Stones Tabs
 Rating:
4/5 (9 votes)
Crash lessons Tabs too difficult? Try these video lessons and learn fast
                ----------------------------------------------------------------------------
                             12 Stones - Crash
----------------------------------------------------------------------------


Tuning:low to high CGCFAd

12 Stones
Drop C
Key of A#

Verse: clean; x8
d|-------------------------------------------------------------|
A|-----------------------------------------------------0-------|
F|-7----7-----7---10-----10-----10---9----9----9---5-0---0-5-0-|
C|--0-0---0-0---0----0-0----0-0----0--0-0--0-0---0-------------|
G|-------------------------------------------------------------|
C|-------------------------------------------------------------|

Chorus: distorted
d|-----------------------------------------------------------------|
A|-----------------------------------------------------------------|
F|-----------------------------------------------------------------|
C|-0-0-0101010-101010-3-3-35-5-5-3-0-0-0101010-101010-3-3-35-5-5-5-|
G|-0-0-0101010-101010-3-3-35-5-5-3-0-0-0101010-101010-3-3-35-5-5-5-|
C|-0-0-0101010-101010-3-3-35-5-5-3-0-0-0101010-101010-3-3-35-5-5-5-|

d|-----------------------------------------------------------------|
A|-----------------------------------------------------------------|
F|-----------------------------------------------------------------|
C|-0-0-0101010-101010-3-3-35-5-5-3-0-0-0101010-101010-3-3-3-555333-|
G|-0-0-0101010-101010-3-3-35-5-5-3-0-0-0101010-101010-3-3-3-555333-|
C|-0-0-0101010-101010-3-3-35-5-5-3-0-0-0101010-101010-3-3-3-555333-|
                                                           ......

Verse: x1

Fill: distorted; Verse1:x1
d|----------------------------------------------------------|
A|----------------------------------------------------------|
F|--------------10-12-10--9-10-9--10-9----------------------|
C|-10s12--10-12------------------------10-------10----10-12-|
G|----------------------------------------10-12----12-------|
C|----------------------------------------------------------|

Verse: x4

Chorus

Bridge: distorted; x2
Riff1              Riff2
d|--------------|--|------------(15)-|
A|--------------|--|-----------------|
F|-----------55-|x3|-----------------|
C|-00---00530xx-|--|-00---0017150----|
G|-00---0053033-|--|-00---0017150----|
C|-00---00530---|--|-00---0017150----|
         ...               . . .
[The reason you play Riff2 up high is so 
you can reach the high A# which I watched Eric do in concert.]
[At least I think thats what he was doing.] ;)
()=First time only

Solo: Distorted
d|------------------------------------------------------------|
A|------------------------------------------------------------|
F|-14b------------10-------10-12-12b-12b-12-10----10----10-12-|
C|------12--10-12----12-12---------------------12----12-------|
G|------------------------------------------------------------|
C|------------------------------------------------------------|

d|-----------------------13----------------------------------|
A|-10-13-10-13-15--13-15----15-15-13h15p13-13-15-18-15-15-18-|
F|-----------------------------------------------------------|
C|-----------------------------------------------------------|
G|-----------------------------------------------------------|
C|-----------------------------------------------------------|

d|----------15-17-17-17-17--17-13----13-------------------|
A|-15-15-18-----------------------15----15-13h15p13-13-15-|
F|--------------------------------------------------------|
C|--------------------------------------------------------|
G|--------------------------------------------------------|
C|--------------------------------------------------------|

d|--------------------------------------------------------|
A|--------------------------------------------------------|
F|-12b-10----10-12-12b-12-10-10---------------------------|
C|--------12--------------------12-10---------------------|
G|------------------------------------12-10-8-------------|
C|--------------------------------------------12---12-15--|

d|-------------------------------------------------------------|
A|-------------------------------------------------15-13----13-|
F|--------------------12b-10-12-12b-10-12-12s14-14-------14----|
C|--------------10-12------------------------------------------|
G|--------10-12------------------------------------------------|
C|-12-15-------------------------------------------------------|

d|----------------------------|
A|----------------------------|
F|-14-14-14-12----12----------|
C|-------------15----15-15-12-|
G|----------------------------|
C|----------------------------|

Chorus

b-bend
s-slide
.-palm mute
h-hammer on
p-pull off
            
Submit corrections

comments powered by Disqus
↑ Back to top | 12 Stones Tabs for Crash. Lyrics for acoustic guitar and electric guitar. Tablatures and chords are parodies/interpretations of the original songs. You may use it for private study, scholarship, research or language learning purposes only