>
 >
Crash 4

Crash 4 Guitar Tabs

12 Stones - Crash 4 chords, tabs, tablatures, lyrics

Guitar lessons | Add/correct | Request | Top 50 tabs Artists:  A B C D E F G H I J K L M N O P Q R S T U V W X Y Z 0-9

Crash 4 Guitar Tabs – 12 Stones

CD, Sheet music, Poster

Do you like Crash 4? Share with your friends now
Bass TabsTabsTabs v2Tabs v3Tabs v4Tabs v5Tabs v6Tabs v7Tabs v8
Gtr I (C G C F A D) - 'Untitled'
Gtr II (C G C F A D) - 'Untitled'
Gtr III (C G C F A D) - 'Untitled'


 Intro
  Q=75
  D                         Dm
 4/4
  Gtr I
  S  S   S  S  S   S  S  S   S  S   S   S  S   S   S  S
|--------------------------------------------------------|
|--------------------------------------------------------|
|-7---------7---------7-----10---------10---------10-----|
|---(0)-(0)---(0)-(0)---(0)----(0)-(0)----(0)-(0)----(0)-|
|--------------------------------------------------------|
|--------------------------------------------------------|


  Dsus2                     Gadd11
  S  S   S  S  S   S  S  S  S E E S S S
|----------------------------------------|
|-------------------------------0-0------|
|-9---------9---------9-----5-------5----|
|---(0)-(0)---(0)-(0)---(0)---5-------5--|
|----------------------------------------|
|----------------------------------------|


  D                         Dm
  S  S   S  S  S   S  S  S   S  S   S   S  S   S   S  S
|--------------------------------------------------------|
|--------------------------------------------------------|
|-7---------7---------7-----10---------10---------10-----|
|---(0)-(0)---(0)-(0)---(0)----(0)-(0)----(0)-(0)----(0)-|
|--------------------------------------------------------|
|--------------------------------------------------------|


  Dsus2                     Gadd11
  S  S   S  S  S   S  S  S  S E E S S S
|---------------------------------------|
|-------------------------------0-0-----|
|-9---------9---------9-----5-------5---|
|---(0)-(0)---(0)-(0)---(0)---5-------5-|
|---------------------------------------|
|---------------------------------------|


   Verse
    D                         Dm
    S  S   S  S  S   S  S  S   S  S   S   S  S   S   S  S
||---------------------------------------------------------|
||o--------------------------------------------------------|
||--7---------7---------7-----10---------10---------10-----|
||----(0)-(0)---(0)-(0)---(0)----(0)-(0)----(0)-(0)----(0)-|
||o--------------------------------------------------------|
||---------------------------------------------------------|


  Dsus2                     Gadd11
  S  S   S  S  S   S  S  S  S E E S S S   5x
|-----------------------------------------||
|-------------------------------0-0------o||
|-9---------9---------9-----5-------5-----||
|---(0)-(0)---(0)-(0)---(0)---5-------5---||
|----------------------------------------o||
|-----------------------------------------||


  D                         Dm
  S  S   S  S  S   S  S  S   S  S   S   S  S   S   S  S
|--------------------------------------------------------|
|--------------------------------------------------------|
|-7---------7---------7-----10---------10---------10-----|
|---(0)-(0)---(0)-(0)---(0)----(0)-(0)----(0)-(0)----(0)-|
|--------------------------------------------------------|
|--------------------------------------------------------|
|
| Gtr II
| W
|--------------------------------------------------------|
|--------------------------------------------------------|
|--------------------------------------------------------|
|--------------------------------------------------------|
|--------------------------------------------------------|
|--------------------------------------------------------|


  Dsus2                      Gadd11
  S   S   S  S  S   S  S  S  S E E   S S S
|-------------------------------------------|
|--------------------------------0---0------|
|-9----------9---------9-----5---------5----|
|----(0)-(0)---(0)-(0)---(0)---5---------5--|
|-------------------------------------------|
|-------------------------------------------|
|
|                                  PM----|
| H.                               S S S S
|-------------------------------------------|
|-------------------------------------------|
|-------------------------------------------|
|-------------------------------------------|
|----------------------------------0-0-0-0--|
|----------------------------------0-0-0-0--|


 Chorus
  $
  D5        C5          F5      G5      N.C.
  Gtr II
                                        ~
  Q   Q   S  E  S  Q    Q  Q  S E S S S E
|---------------------|-------------------|
|-----3---------------|-------------------|
|-----2---------------|-------------------|
|-0--(0)--x-10-10-10--|-3--3--x-5-5-5-5---|
|-0--(0)--x-10-10-10--|-3--3--x-5-5-5-5---|
|-0--(0)--x-10-10-10--|-3--3--x-5-5-5-5-3-|


  D5        C5          F5      G5
  Q   Q   S  E  S  Q    Q  Q  S E S S S S S
|---------------------|---------------------|
|-----3---------------|---------------------|
|-----2---------------|---------------------|
|-0--(0)--x-10-10-10--|-3--3--x-5-5-5-5-5-5-|
|-0--(0)--x-10-10-10--|-3--3--x-5-5-5-5-5-5-|
|-0--(0)--x-10-10-10--|-3--3--x-5-5-5-5-5-5-|


  D5        C5          F5      G5      N.C.
                                        ~
  Q   Q   S  E  S  Q    Q  Q  S E S S S E
|---------------------|-------------------|
|-----3---------------|-------------------|
|-----2---------------|-------------------|
|-0--(0)--x-10-10-10--|-3--3--x-5-5-5-5---|
|-0--(0)--x-10-10-10--|-3--3--x-5-5-5-5---|
|-0--(0)--x-10-10-10--|-3--3--x-5-5-5-5-3-|


                                 To Coda
  D5        C5          F5    G5      F5
                              PM--------|
                              |-3-| |-3-|
  Q   Q   S  E  S  Q    Q  Q  E E E E E E
|---------------------|-------------------|
|-----3---------------|-------------------|
|-----2---------------|-------------------|
|-0--(0)--x-10-10-10--|-3--3--------------|
|-0--(0)--x-10-10-10--|-3--3--5-5-5-5-3-3-|
|-0--(0)--x-10-10-10--|-3--3--5-5-5-5-3-3-|


 Guitar Solo
  D                         Dm
  Gtr I
  S  S   S  S  S   S  S  S   S  S   S   S  S   S   S  S
|--------------------------------------------------------|
|--------------------------------------------------------|
|-7---------7---------7-----10---------10---------10-----|
|---(0)-(0)---(0)-(0)---(0)----(0)-(0)----(0)-(0)----(0)-|
|--------------------------------------------------------|
|--------------------------------------------------------|
|
| Gtr II
| W
|--------------------------------------------------------|
|--------------------------------------------------------|
|--------------------------------------------------------|
|--------------------------------------------------------|
|--------------------------------------------------------|
|--------------------------------------------------------|


  Dsus2                     Gadd11
  S  S   S  S  S   S  S  S  S E E    S S  S
|--------------------------------------------|
|-------------------------------0----0-------|
|-9---------9---------9-----5----------5-----|
|---(0)-(0)---(0)-(0)---(0)---5-----------5--|
|--------------------------------------------|
|--------------------------------------------|
|
| H                         Q     E.      S
|--------------------------------------------|
|--------------------------------------------|
|--------------------------------------------|
|----------------------------------------10--|
|--------------------------------------------|
|--------------------------------------------|


  D                          Dm
   S  S   S  S  S  S   S  S   S  S    S   S  S   S   S  S
|----------------------------------------------------------|
|----------------------------------------------------------|
|--7---------7---------7-----10----------10---------10-----|
|----(0)-(0)---(0)(0)----(0)----(0)--(0)----(0)-(0)----(0)-|
|----------------------------------------------------------|
|----------------------------------------------------------|
|
|  Q            S  S   S  S   E      +Q              S  S
|----------------------------------------------------------|
|----------------------------------------------------------|
|---------------------10h12--10-----(10)-------------9h10--|
|-12-----------10h12---------------------------------------|
|----------------------------------------------------------|
|----------------------------------------------------------|


  Dsus2                       Gadd11
  S   S   S  S  S   S   S  S   S E     E    S S  S
|--------------------------------------------------|
|--------------------------------------0----0------|
|-9----------9----------9------5--------------5----|
|----(0)-(0)---(0)-(0)----(0)----5---------------5-|
|--------------------------------------------------|
|--------------------------------------------------|
|
| Q.                    S  S   E    S  S  E   S  S
|--------------------------------------------------|
|--------------------------------------------------|
|-9--------------------10p=9-----------------------|
|-----------------------------10---------10---7h10-|
|----------------------------------10h12-----------|
|--------------------------------------------------|


 Verse 2
  D                         Dm
  S  S   S  S  S   S  S  S   S  S   S   S  S   S   S  S
|--------------------------------------------------------|
|--------------------------------------------------------|
|-7---------7---------7-----10---------10---------10-----|
|---(0)-(0)---(0)-(0)---(0)----(0)-(0)----(0)-(0)----(0)-|
|--------------------------------------------------------|
|--------------------------------------------------------|
|
| >
| H                          H
|--------------------------------------------------------|
|--------------------------------------------------------|
|-7------------------------------------------------------|
|--------------------------------------------------------|
|--------------------------------------------------------|
|--------------------------------------------------------|


  Dsus2                     Gadd11
  S  S   S  S  S   S  S  S  S E E S S S
|---------------------------------------|
|-------------------------------0-0-----|
|-9---------9---------9-----5-------5---|
|---(0)-(0)---(0)-(0)---(0)---5-------5-|
|---------------------------------------|
|---------------------------------------|
|
| W
|---------------------------------------|
|---------------------------------------|
|---------------------------------------|
|---------------------------------------|
|---------------------------------------|
|---------------------------------------|


    D                         Dm
    S  S   S  S  S   S  S  S   S  S   S   S  S   S   S  S
||---------------------------------------------------------|
||o--------------------------------------------------------|
||--7---------7---------7-----10---------10---------10-----|
||----(0)-(0)---(0)-(0)---(0)----(0)-(0)----(0)-(0)----(0)-|
||o--------------------------------------------------------|
||---------------------------------------------------------|


  Dsus2                     Gadd11
  S  S   S  S  S   S  S  S  S E E S S S
|-----------------------------------------||
|-------------------------------0-0------o||
|-9---------9---------9-----5-------5-----||
|---(0)-(0)---(0)-(0)---(0)---5-------5---||
|----------------------------------------o||
|-----------------------------------------||


  D                         Dm
  S  S   S  S  S   S  S  S   S  S   S   S  S   S   S  S
|--------------------------------------------------------|
|--------------------------------------------------------|
|-7---------7---------7-----10---------10---------10-----|
|---(0)-(0)---(0)-(0)---(0)----(0)-(0)----(0)-(0)----(0)-|
|--------------------------------------------------------|
|--------------------------------------------------------|
|
| Gtr II
| W
|--------------------------------------------------------|
|--------------------------------------------------------|
|--------------------------------------------------------|
|--------------------------------------------------------|
|--------------------------------------------------------|
|--------------------------------------------------------|


                            D.S. al Coda
  Dsus2                     Gadd11
  S  S   S  S  S   S  S  S  S E E   S S S
|------------------------------------------|
|-------------------------------0---0------|
|-9---------9---------9-----5---------5----|
|---(0)-(0)---(0)-(0)---(0)---5---------5--|
|------------------------------------------|
|------------------------------------------|
|
| H                         Q     E   S S
|------------------------------------------|
|------------------------------------------|
|------------------------------------------|
|-------------------------------------x-x--|
|-------------------------------------x-x--|
|-------------------------------------x-x--|


 Bridge
  &
  D5                  C         D5                  C
  Gtr II
  S S E E S S Q       Q         S S E E S S Q       Q
|-----------------------------|-----------------------------|
|-----------------------------|-----------------------------|
|---------------------5-------|---------------------5-------|
|-0-0-----0-0-----------------|-0-0-----0-0-----------------|
|-0-0-----0-0---------3-------|-0-0-----0-0---------3-------|
|-0-0-----0-0-----------------|-0-0-----0-0-----------------|
|
| Gtr III
|               PM----------|                 PM----------|
| S S E E S S S S S S S S S S   S S E E S S S S S S S S S S
|-----------------------------|-----------------------------|
|-----------------------------|-----------------------------|
|-----------------------------|-----------------------------|
|-0-0-----0-0-----------------|-0-0-----0-0-----------------|
|-0-0-----0-0-----------------|-0-0-----0-0-----------------|
|-0-0-----0-0---3-2-0-5-3-2-3-|-0-0-----0-0---3-2-0-5-3-2-3-|


  D5                  C         D5                  G5
  S S E E S S Q       Q         S S E E S S Q        Q
|-----------------------------|---------------------15-----|
|-----------------------------|---------------------18b20--|
|---------------------5-------|----------------------------|
|-0-0-----0-0-----------------|-0-0-----0-0----------------|
|-0-0-----0-0---------3-------|-0-0-----0-0----------------|
|-0-0-----0-0-----------------|-0-0-----0-0----------------|
|
|               PM----------|                 PM--|
| S S E E S S S S S S S S S S   S S E E S S S S S S  Q
|-----------------------------|----------------------------|
|-----------------------------|----------------------------|
|-----------------------------|----------------------------|
|-0-0-----0-0-----------------|-0-0-----0-0----------5-----|
|-0-0-----0-0-----------------|-0-0-----0-0----------5-----|
|-0-0-----0-0---3-2-0-5-3-2-3-|-0-0-----0-0---3-2-0--5-----|


  D5                  C         D5                  C
  S S E E S S Q       Q         S S E E S S Q       Q
|-----------------------------|-----------------------------|
|-----------------------------|-----------------------------|
|---------------------5-------|---------------------5-------|
|-0-0-----0-0-----------------|-0-0-----0-0-----------------|
|-0-0-----0-0---------3-------|-0-0-----0-0---------3-------|
|-0-0-----0-0-----------------|-0-0-----0-0-----------------|
|
|               PM----------|                 PM----------|
| S S E E S S S S S S S S S S   S S E E S S S S S S S S S S
|-----------------------------|-----------------------------|
|-----------------------------|-----------------------------|
|-----------------------------|-----------------------------|
|-0-0-----0-0-----------------|-0-0-----0-0-----------------|
|-0-0-----0-0-----------------|-0-0-----0-0-----------------|
|-0-0-----0-0---3-2-0-5-3-2-3-|-0-0-----0-0---3-2-0-5-3-2-3-|


  D5                  C         D5                  G5
  S S E E S S Q       Q         S S E E S S Q        Q
|-----------------------------|----------------------------|
|-----------------------------|----------------------------|
|---------------------5-------|---------------------12b14--|
|-0-0-----0-0-----------------|-0-0-----0-0----------------|
|-0-0-----0-0---------3-------|-0-0-----0-0----------------|
|-0-0-----0-0-----------------|-0-0-----0-0----------------|
|
|               PM----------|                 PM--|
| S S E E S S S S S S S S S S   S S E E S S S S S S  Q
|-----------------------------|----------------------------|
|-----------------------------|----------------------------|
|-----------------------------|----------------------------|
|-0-0-----0-0-----------------|-0-0-----0-0----------5-----|
|-0-0-----0-0-----------------|-0-0-----0-0----------5-----|
|-0-0-----0-0---3-2-0-5-3-2-3-|-0-0-----0-0---3-2-0--5-----|


 Guitar Solo
  D5                C5
   Q    Q         S  E  S  Q
|----------------------------------|
|-------3--------------------------|
|-------2--------------------------|
|--0---(0)--------x-10-10-10-------|
|--0---(0)--------x-10-10-10-------|
|--0---(0)--------x-10-10-10-------|
|
|  Q.       S  S  S  E  S  E  S  S
|----------------------------------|
|----------------------------------|
|----------------10----------------|
|-12-------10h12----12-12-12-12-10-|
|----------------------------------|
|----------------------------------|


  F5                                         G5             N.C.
                                                             ~~
   Q           Q                          S   E     S  S  S  E
|------------------------------------------------------------------|
|------------------------------------------------------------------|
|------------------------------------------------------------------|
|--3-----------3--------------------------x---5-----5--5--5--------|
|--3-----------3--------------------------x---5-----5--5--5--------|
|--3-----------3--------------------------x---5-----5--5--5--3-----|
|
|  E     E     T      +T   +T   T  S  S  +S   S  S  S  S  S  S  S
|------------------------------------------------------------------|
|-----------------------------------------------------10-13----13--|
|-12b13-12b13-12b13==(12)r(12)-10----10-(10)-------10-------14-----|
|---------------------------------12---------10-12-----------------|
|------------------------------------------------------------------|
|------------------------------------------------------------------|


  D5                   C5
   Q   Q            S   E  S   Q
|---------------------------------------------------|
|------3--------------------------------------------|
|------2--------------------------------------------|
|--0--(0)-----------x--10-10--10--------------------|
|--0--(0)-----------x--10-10--10--------------------|
|--0--(0)-----------x--10-10--10--------------------|
|
|  Q   S  S  S  S  +S   E  S  +S   T  T  T  T  T  T
|--------------13-(13)------------------------------|
|-15--13h15-15---------15-15-(15)-13h15p13----13h15-|
|------------------------------------------14-------|
|---------------------------------------------------|
|---------------------------------------------------|
|---------------------------------------------------|


  F5                      G5                      F5
                           PM-----------------------|
                           |-----3-----|     |--3---|
   Q           Q           E     E     E     E    E E
|-----------------------------------------------------|
|-----------------------------------------------------|
|-----------------------------------------------------|
|--3-----------3--------------------------------------|
|--3-----------3-----------5-----5-----5-----5----3-3-|
|--3-----------3-----------5-----5-----5-----5----3-3-|
|
|                          |-----3-----|
|  S  S  S  S  S  S  S  S  E     E     E     Q
|-13-------13-------13-15-15b17-15b17-15b17-15b17-----|
|----15-15----15-15-----------------------------------|
|-----------------------------------------------------|
|-----------------------------------------------------|
|-----------------------------------------------------|
|-----------------------------------------------------|


  D5                                                 C5
   Q                          Q                 S     E        S  Q
|-------------------------------------------------------------------------|
|-----------------------------3-------------------------------------------|
|-----------------------------2-------------------------------------------|
|--0-------------------------(0)----------------x----10-------10-10-------|
|--0-------------------------(0)----------------x----10-------10-10-------|
|--0-------------------------(0)----------------x----10-------10-10-------|
|
|                                               |---3----|
|  T      +T   +T   T  S  S  +S   S  +S   S  a  S  S     S  S  S  S  E  S
|-15b17==(15)r(15)p13----13-(13)---------------------------------13-------|
|---------------------15---------15-(15)-15-13h15-13-------13-15----15-15-|
|-------------------------------------------------------14----------------|
|-------------------------------------------------------------------------|
|-------------------------------------------------------------------------|
|-------------------------------------------------------------------------|


  F5                                                 G5             N.C.
                                                                     ~~
   Q                      Q                S          E     S  S  S  E
|-------------------------------------------------------------------------|
|-------------------------------------------------------------------------|
|-------------------------------------------------------------------------|
|--3----------------------3----------------x----------5-----5--5--5-------|
|--3----------------------3----------------x----------5-----5--5--5-------|
|--3----------------------3----------------x----------5-----5--5--5--3----|
|
|  S  T      +T   +S   S  S     +S   S  S  T     +T   S  S  S  S  S  S  S
|-------------------------------------------------------------------------|
|-13---------------------13----(13)---------------------------------------|
|----12b14==(12)r(12)p10-12b14r(12)-10-12-12b14r(12)----10----------------|
|----------------------------------------------------12----12-10----------|
|----------------------------------------------------------------12-10----|
|----------------------------------------------------------------------15-|


  D5                     C5
   Q      Q            S  E     S  Q
|-----------------------------------------------------|
|---------3-------------------------------------------|
|---------2-------------------------------------------|
|--0-----(0)-----------x-10----10-10------------------|
|--0-----(0)-----------x-10----10-10------------------|
|--0-----(0)-----------x-10----10-10------------------|
|
|                                  |----3-----|
|  E.  S  S   S  S  S  S  S  S  S  S     +S   S  S  S
|-----------------------------------------------------|
|-----------------------------------------------------|
|---------------------------------12b14r(12)p10----10-|
|------------------------10----10---------------12----|
|------------------10-12----12------------------------|
|-12--12-15--12-15------------------------------------|


  F5                                       G5                    F5 E5 G5             F5 E5
 6/4
                                            PM-------------------------------------------|
                                            |-----3------|     |--3--|  |---3----|  |--3--|
   Q                   Q                    E    E       E     E  E  E  E     E  E  E  E  E
|--------------------------------------------------------------------------------------------|
|--------------------------------------------------------------------------------------------|
|--------------------------------------------------------------------------------------------|
|--3-------------------3---------------------------------------------------------------------|
|--3-------------------3--------------------5----5-------5-----5--3--2--5-----5--5--5--3--2--|
|--3-------------------3--------------------5----5-------5-----5--3--2--5-----5--5--5--3--2--|
|
|  |----3-----|                                |---3---|       |--3--|  |---3----|  |--3--|
|  S     +S   S  S  S  S      +S    S   S   S  S    S  S    S  E  E  E  E     E  E  E  E  E
|--------------------------------------------------------------------------------------------|
|----------------------------------13------15-13---15-13------13-------12--------------------|
|-12b14r(12)p10----10-12b14==(12)-(12)-12r-----------------14----14-12-12b14-12-10-12-10-----|
|---------------12-----------------------------------------------------------------------12--|
|--------------------------------------------------------------------------------------------|
|--------------------------------------------------------------------------------------------|


 Chorus
  D5         C5          F5      G5      N.C.
 4/4
                                         ~
   Q   Q   S  E  S  Q    Q  Q  S E S S S E
|----------------------|-------------------|
|------3---------------|-------------------|
|------2---------------|-------------------|
|--0--(0)--x-10-10-10--|-3--3--x-5-5-5-5---|
|--0--(0)--x-10-10-10--|-3--3--x-5-5-5-5---|
|--0--(0)--x-10-10-10--|-3--3--x-5-5-5-5-3-|
|
|  W                     W
|----------------------|-------------------|
|----------------------|-------------------|
|----------------------|-------------------|
|-12-------------------|-------------------|
|----------------------|-------------------|
|----------------------|-------------------|


  D5        C5          F5      G5
  Q   Q   S  E  S  Q    Q  Q  S E S S S S S
|---------------------|---------------------|
|-----3---------------|---------------------|
|-----2---------------|---------------------|
|-0--(0)--x-10-10-10--|-3--3--x-5-5-5-5-5-5-|
|-0--(0)--x-10-10-10--|-3--3--x-5-5-5-5-5-5-|
|-0--(0)--x-10-10-10--|-3--3--x-5-5-5-5-5-5-|


  D5        C5          F5      G5      N.C.
                                        ~
  Q   Q   S  E  S  Q    Q  Q  S E S S S E
|---------------------|-------------------|
|-----3---------------|-------------------|
|-----2---------------|-------------------|
|-0--(0)--x-10-10-10--|-3--3--x-5-5-5-5---|
|-0--(0)--x-10-10-10--|-3--3--x-5-5-5-5---|
|-0--(0)--x-10-10-10--|-3--3--x-5-5-5-5-3-|


  D5        C5          F5    G5      F5E5
                              PM--------|
                              |-3-| |-3-|
  Q   Q   S  E  S  Q    Q  Q  E E E E E E
|---------------------|-------------------*|
|-----3---------------|-------------------*|
|-----2---------------|-------------------*|
|-0--(0)--x-10-10-10--|-3--3--------------*|
|-0--(0)--x-10-10-10--|-3--3--5-5-5-5-3-2-*|
|-0--(0)--x-10-10-10--|-3--3--5-5-5-5-3-2-*|




--------------------------------------------------------------------------------


Duration Legend
---------------
W - whole; H - half; Q - quarter; E - 8th; S - 16th; T - 32nd; X - 64th; a - acciaccatura
+ - note tied to previous; . - note dotted; .. - note double dotted
Uncapitalized letters represent notes that are staccato (1/2 duration)
Irregular groupings are notated above the duration line
Duration letters will always appear directly above the note/fret number it represents the
duration for.  Duration letters with no fret number below them represent rests.  Multi-
bar rests are notated in the form Wxn, where n is the number of bars to rest for.  Low
melody durations appear below the staff

Tablature Legend
----------------
 h   - hammer-on
 p   - pull-off
 b   - bend
 pb  - pre-bend
 r   - bend release (if no number after the r, then release immediately)
 /\  - slide into or out of (from/to "nowhere")
 s   - legato slide
 S   - shift slide
 - natural harmonic
[n]  - artificial harmonic
n(n) - tapped harmonic
 ~   - vibrato
 tr  - trill
 T   - tap
 TP  - trem. picking
 PM  - palm muting
\n/  - tremolo bar dip; n = amount to dip
 \n  - tremolo bar down
 n/  - tremolo bar up
/n\  - tremolo bar inverted dip
 =   - hold bend; also acts as connecting device for hammers/pulls
 <> - volume swell (louder/softer)
 x   - on rhythm slash represents muted slash
 o   - on rhythm slash represents single note slash

Misc Legend
-----------
 |  - bar
||  - double bar
||o - repeat start
o|| - repeat end
*|  - double bar (ending)
 :  - bar (freetime)
 $  - Segno
 &  - Coda
Tempo markers -  = BPM(8/16=s8/s16), where s8 = swing 8ths, s16 = swing 16ths



--------------------------------------------------------------------------------





Comments


Popular 12 Stones tabs & chords
Broken 3 Bass Tabs
We Are One Intro Bass Tabs
Lie To Me 2 Chords
Running Out Of Pain Chords
The Way I Feel 1 Chords
Far Away 3 Tabs
Lie To Me 5 Tabs
Running Out Of Pain 1 Tabs
Lie To Me Ukulele
Lie To Me 2 Ukulele


Song lyrics



↑ Back to top | Tablatures and chords are parodies/interpretations of the original songs. You may use it for private study, scholarship, research or language learning purposes only
© 2014 AZChords.com Contact us | Privacy policy | DMCA | Add/correct tabs | Request tabs | Top 50 tabs