» » »

10 Years, Running In Place Tabs (ver.1)

Artists:  A B C D E F G H I J K L M N O P Q R S T U V W X Y Z # 

Running In Place Tabs (ver.1)

10 Years Tabs
 Rating:
4/5 (5 votes)
Running In Place lessons Tabs too difficult? Try these video lessons and learn fast
                -------------------------------------------------------------------------------
-------------------------------------------------------------------------------

Tuning:Dropped Db (Db Ab Db Gb Bb eb)

Intro:
eb|--------10------------10-------------10-------------------------------|
Bb|-----------8-------------8--------------8-----------------------------|
Gb|----------------------------------------------------------------------| 
Db|--9-9-----------9-9------------9-9------------7-7--5-5--4-4--0-0------|
Ab|--9-9-----------9-9------------9-9------------7-7--5-5--4-4--0-0------|
Db|--9-9-----------9-9------------9-9------------7-7--5-5--4-4--0-0------|
                            (repeat once)


Verses 1&2:(palm muted)                                               {x4}
eb|----------------------------------------------------------------------|
Bb|----------------------------------------------------------------------|
Gb|----------------------------------------------------------------------|
Db|----------------------------------------------------------------------|
Ab|--9-9-9-9---9-9-9-9-------0-0-0-0--2-2-2-2--3-3-3-3--5-5-5-5----------|
Db|--9-9-9-9---9-9-9-9-------0-0-0-0--2-2-2-2--2-2-2-2--5-5-5-5----------|
  


Pre-Chorus:                                                           {x2}
eb|----------------------------------------------------------------------|
Bb|----------------------------------------------------------------------|
Gb|----------------------------------------------------------------------|
Db|--9-9-9-9-----9-9-9-9---0-12-11-7-------------------------------------|
Ab|--9-9-9-9-----9-9-9-9---0-12-11-7-------------------------------------|
Db|--9-9-9-9-----9-9-9-9---0-12-11-7-------------------------------------|



Chorus:                                                           
eb|------------------------------------------------------------------|
Bb|------------------------------------------------------------------|
Gb|--4--4---4-4-4/7--7---7-7-----------------------------------------|
Db|--4--4---4-4-4/7--7---7-7----7--7---7-7-7--5--4--0-0--------------|
Ab|--2--2---2-2-2/5--5---5-5----7--7---7-7-7--5--4--0-0--------------|
Db|-----------------------------7--7---7-7-7--5--4--0-0--------------|
                    
(Repeat 3 more times and on the last time.....)

                                                      
eb|--------------------------------------------------------|
Bb|--------------------------------------------------------|
Gb|--4--4---4-4-4/7--7---7-7-------------------------------|
Db|--4--4---4-4-4/7--7---7-7----7--7---7-7-----------------|
Ab|--2--2---2-2-2/5--5---5-5----7--7---7-7-----------------|
Db|-----------------------------7--7---7-7-----------------|
                                           

Intro{x1}
Verse{x4}
Pre-Chorus{x2}
Chorus{x4}


Bridge:

eb|--------------------------------------------------------------|
Bb|--------------------------------------------------------------|
Gb|--------------------------------------------------------------|
Db|--5-5-5-5-5-5-5h7-7-7-7-7-7-7---0h2--2--0h2-0h2--4------------|
Ab|--5-5-5-5-5-5-5h7-7-7-7-7-7-7---0h2--2--0h2-0h2--4------------|
Db|--5-5-5-5-5-5-5h7-7-7-7-7-7-7---0h2--2--0h2-0h2--4------------|

(Repeat 3 more times and on the last time...)

eb|--------------------------------------------------------------|
Bb|--------------------------------------------------------------|
Gb|--------------------------------------------------------------|
Db|--5-5-5-5-5-5-5h7-7-7-7-7-7-7---4--4--4--4--4--4--4--4--------|
Ab|--5-5-5-5-5-5-5h7-7-7-7-7-7-7---4--4--4--4--4--4--4--4--------|
Db|--5-5-5-5-5-5-5h7-7-7-7-7-7-7---4--4--4--4--4--4--4--4--------|

After this the chorus is played on an acoustic hitting the open b string with the chords.


Chorus {x4}



end on...

eb|------|
Bb|------|
Gb|--4---|
Db|--4---|
Ab|--2---|
Db|------| and let it ring out



************************************

| /   slide up
| \   slide down
| h   hammer-on
| p   pull-off
| ~   vibrato
| +   harmonic
| x   Mute note
| b   Bend
| pb  Pre-bend
| br  Bend release
| pbr Pre-bend release
| brb Bend release bend

************************************
            
Submit corrections

comments powered by Disqus
↑ Back to top | 10 Years Tabs for Running In Place. Lyrics for acoustic guitar and electric guitar. Tablatures and chords are parodies/interpretations of the original songs. You may use it for private study, scholarship, research or language learning purposes only