>
 >
Running In Place 1

Running In Place 1 Guitar Tabs

10 Years - Running In Place 1 chords, tabs, tablatures, lyrics

Guitar lessons | Add/correct | Request | Top 50 tabs Artists:  A B C D E F G H I J K L M N O P Q R S T U V W X Y Z 0-9

Running In Place 1 Guitar Tabs – 10 Years

CD, Sheet music, Poster

Do you like Running In Place 1? Share with your friends now
TabsTabs v2
----------------------------------------------------------------------------
                             RUNNING IN PLACE - 10 Years
----------------------------------------------------------------------------

Tuning: Drop C#

Intro/Pre-Verse: (play twice)

D#|------------------------------------------------------------------------|
A#|------(12)----------(12)----------(12)----------------------------------|
F#|----------(12)----------(12)----------(12)------------------------------|
C#|--9-9-----------9-9-----------9-9-----------7-7-5-5-4-4-0-0-------------|
G#|--9-9-----------9-9-----------9-9-----------7-7-5-5-4-4-0-0-------------|
C#|--9-9-----------9-9-----------9-9-----------7-7-5-5-4-4-0-0-------------|

Verse 1: (play 4 times)

D#|------------------------------------------------------------------------|
A#|------------------------------------------------------------------------|
F#|------------------------------------------------------------------------|
C#|------------------------------------------------------------------------|
G#|------------------------------------------------------------------------|
C#|--9-9-9-9----9-9-9-9------------0-0-0-0-0-0-2-2-2-2-2-2-5-5-5-5---------|
 (pm)x x x x    x x x x            x x x x x x x x x x x x x x x x

Pre-Chorus: (play twice)

D#|------------------------------------------------------------------------|
A#|------------------------------------------------------------------------|
F#|---------------------------------------------(12)-----------------------|
C#|--9-9-9-9-9-----------------9-9-9-9-9-----------------------------------|
G#|--9-9-9-9-9-----------------9-9-9-9-9-----------------------------------|
C#|--9-9-9-9-9-----------------9-9-9-9-9-----0-------(9)-(12)--------------|

Note: Other guitar is doing pick slides during pre-chorus


Chorus: (play 4 times)

D#|------------------------------------------------------------------------|
A#|------------------------------------------------------------------------|
F#|------------------------------------------------------------------------|
C#|9-9-9-9-9-9-9-9-9-9-12-12-12-12-12-12-12-7-7-7-7-7-7-7-7-7-7-7-7-7-7-7-7|
G#|9-9-9-9-9-9-9-9-9-9-12-12-12-12-12-12-12-5-5-5-5-5-5-5-5-5-5-5-5-5-7-7-7|
C#|9-9-9-9-9-9-9-9-9-9-12-12-12-12-12-12-12-5-5-5-5-5-5-5-5-5-5-5-5-5-7-7-7|

Pre-Verse:

D#|------------------------------------------------------------------------|
A#|------(12)----------(12)----------(12)----------------------------------|
F#|----------(12)----------(12)----------(12)------------------------------|
C#|--9-9-----------9-9-----------9-9-----------7-7-5-5-4-4-0-0-------------|
G#|--9-9-----------9-9-----------9-9-----------7-7-5-5-4-4-0-0-------------|
C#|--9-9-----------9-9-----------9-9-----------7-7-5-5-4-4-0-0-------------|

Verse 2: (play 4 times)

D#|------------------------------------------------------------------------|
A#|------------------------------------------------------------------------|
F#|------------------------------------------------------------------------|
C#|--------9----------9----------------------------------------------------|
G#|--------9----------9----------------------------------------------------|
C#|--9-9-9-9----9-9-9-9------------0-0-0-0-0-0-2-2-2-2-2-2-5-5-5-5---------|
 (pm)x x x      x x x              x x x x x x x x x x x x x x x x

Pre-Chorus: (play twice)

Chorus: (play 4 times)

Bridge:

D#|------------------------------------------------------------------------|
A#|------------------------------------------------------------------------|
F#|------------------------------------------------------------------------|
C#|-5-5-5-5-5-5-5-5-5-7-7-7-7-7-7-7-0-2--2-2-2--2-0-2--2-0-2-4-------------|
G#|-5-5-5-5-5-5-5-5-5-7-7-7-7-7-7-7-0-2--2-2-2--2-0-2--2-0-2-4-------------|
C#|-5-5-5-5-5-5-5-5-5-7-7-7-7-7-7-7-0-2--2-2-2--2-0-2--2-0-2-4-------------|

D#|------------------------------------------------------------------------|
A#|------------------------------------------------------------------------|
F#|------------------------------------------------------------------------|
C#|-5-5-5-5-5-5-5-5-5-7-7-7-7-7-7-7-0-2--2-2-2--2-0-2--2-0-2-0-------------|
G#|-5-5-5-5-5-5-5-5-5-7-7-7-7-7-7-7-0-2--2-2-2--2-0-2--2-0-2-0-------------|
C#|-5-5-5-5-5-5-5-5-5-7-7-7-7-7-7-7-0-2--2-2-2--2-0-2--2-0-2-0-------------|

D#|------------------------------------------------------------------------|
A#|------------------------------------------------------------------------|
F#|------------------------------------------------------------------------|
C#|-5-5-5-5-5-5-5-5-5-7-7-7-7-7-7-7-0-2--2-2-2--2-0-2--2-0-2-4-------------|
G#|-5-5-5-5-5-5-5-5-5-7-7-7-7-7-7-7-0-2--2-2-2--2-0-2--2-0-2-4-------------|
C#|-5-5-5-5-5-5-5-5-5-7-7-7-7-7-7-7-0-2--2-2-2--2-0-2--2-0-2-4-------------|

D#|------------------------------------------------------------------------|
A#|------------------------------------------------------------------------|
F#|------------------------------------------------------------------------|
C#|-5-5-5-5-5-5-5-5-7-7-7-7-7-7-7-7-4--4--4--4--4--4--4--4-----------------|
G#|-5-5-5-5-5-5-5-5-7-7-7-7-7-7-7-7-4--4--4--4--4--4--4--4-----------------|
C#|-5-5-5-5-5-5-5-5-7-7-7-7-7-7-7-7-4--4--4--4--4--4--4--4-----------------|
                               (pm) x  x  x  x  x  x  x  x

Acoustic Chorus:

Guitar 1:

D#|-0---0--0-0-0-0-0--0-0-0---0--0-0--0-0--0-0-0-0-0-0--0-0-0-0-0--0-0-0---|
A#|-x---x--x-x-x-x-x--x-x-x---x--x-x--x-x--x-x-x-x-x-x--x-x-x-x-x--x-x-x---|
F#|-4---4--4-4-7-7-7--7-7-7---7--7-7--7-7--7-7-7-4-4-4--4-4-7-7-7--7-7-7---|
C#|-4---4--4-4-7-7-7--7-7-7---7--7-7--7-7--7-7-7-4-4-4--4-4-7-7-7--7-7-7---|
G#|-2---2--2-2-5-5-5--5-5-5---5--5-5--5-5--5-5-5-2-2-2--2-2-5-5-5--5-5-5---|
C#|-----------------------5---5--5-5--5-5--5-5-5-----------------------5---|

Guitar 2:

D#|-0----------0----------0----------------------0----------0----------0---|
A#|-x----------x----------x----------------------x----------x----------x---|
F#|-4----------7----------7----------------------4----------7----------7---|
C#|-4----------7----------7----------------------4----------7----------7---|
G#|-2----------5----------5----------------------2----------5----------5---|
C#|-----------------------5--------------------------------------------5---|

Chorus: (play twice)

Outro:

D#|------------------------------------------------------------------------|
A#|------------------------------------------------------------------------|
F#|------------------------------------------------------------------------|
C#|9-9-9-9-9-9-9-9-9-9-12-12-12-12-12-12-12-7-7-7-7-7-7-7-7-7-7-7-7-7-7-7-7|
G#|9-9-9-9-9-9-9-9-9-9-12-12-12-12-12-12-12-5-5-5-5-5-5-5-5-7-7-7-7-7-7-7-7|
C#|9-9-9-9-9-9-9-9-9-9-12-12-12-12-12-12-12-5-5-5-5-5-5-5-5-7-7-7-7-7-7-7-7|

D#|------------------------------------------------------------------------|
A#|------------------------------------------------------------------------|
F#|------------------------------------------------------------------------|
C#|9-9-9-9-9-9-9-9-9-9-12-12-12-12-12-12-12-7-7-7-7-7-7-7-7-7-----4-----9--|
G#|9-9-9-9-9-9-9-9-9-9-12-12-12-12-12-12-12-5-5-5-5-5-5-5-5-7-----4-----9--|
C#|9-9-9-9-9-9-9-9-9-9-12-12-12-12-12-12-12-5-5-5-5-5-5-5-5-7-----4-----9--|

END



************************************
| ( ) natural harmonic
| /   slide up
| \   slide down
| h   hammer-on
| p   pull-off
| ~   vibrato
| +   harmonic
| x   Mute note
| b   Bend
| pb  Pre-bend
| br  Bend release
| pbr Pre-bend release
| brb Bend release bend

************************************





Comments


Popular 10 Years tabs & chords
Actions And Motives 1 Tabs
Battle Lust Tabs
Cast It Out Tabs
Fault Line Tabs
Prey 2 Tabs
So Long Goodbye 5 Tabs
Waking Up 2 Tabs
Wasteland 8 Tabs
Through The Iris Ukulele
Wasteland Ukulele


Song lyrics



↑ Back to top | Tablatures and chords are parodies/interpretations of the original songs. You may use it for private study, scholarship, research or language learning purposes only
© 2014 AZChords.com Contact us | Privacy policy | DMCA | Add/correct tabs | Request tabs | Top 50 tabs