>
 >
Half Life 1

Half Life 1 Guitar Tabs

10 Years - Half Life 1 chords, tabs, tablatures, lyrics

Guitar lessons | Add/correct | Request | Top 50 tabs Artists:  A B C D E F G H I J K L M N O P Q R S T U V W X Y Z 0-9

Half Life 1 Guitar Tabs – 10 Years

CD, Sheet music, Poster

Do you like Half Life 1? Share with your friends now
TabsTabs v2Tabs v3Tabs v4
10 Years - Half Life

Tuning:  C#/G#/C#/F#/A#/D#

I haven't tabbed out the second guitar yet, but i'm working on it!
Also, working on the drum tab!

Notation Chart:
/: ascending slide
\: descending slide
~: let notes ring
x: dead note
*: natural harmonic
^: feedback
P.M-->: palm muting
R: rest

Intro:
   <0:00--------------0:10>
   Feedback:-------------->
|-----------------------------|
|-----------------------------|
|-----------------------------|
|--*2^^^^^^^^^^^^^^^^^^^^^^^--|
|-----------------------------|
|-----------------------------|

|----------------------------|----------------|----------------------|
|--8~~~~~~~~~~~~~~~~~~~~~~~--|----------------|----------8~~~~~~^^^--|
|--x-------------------------|----------------|----------------------|
|--9~~~~~~~~~~~~~~~~~~~~~~~--|----------------|-----9~~~~~~~~~~~~~~--|
|--7~~~~~~~~~~~~~~~~~~~~~~~--|-------0---7\0--|--7~~~~~~~~~~~~~~~~~--|
|----------------------------|----------------|----------------------|

|----------------------------|----------------------|
|----------------------------|----------8~~~~~~^^^--|
|----------------------------|----------------------|
|--0~~~~~~~~~~~~~~~~~~~~~~~--|-----9~~~~~~~~~~~~~~--|
|--0~~~~~~~~~~~~~~~~~~~~~~~--|--7~~~~~~~~~~~~~~~~~--|
|--0~~~~~~~~~~~~~~~~~~~~~~~--|----------------------|

|----------------------------|-------------------|
|----------------------------|--3~~~~~~~~~~~~~~--|
|----------------------------|--2~~~~~~~~~~~~~~--|
|--0~~~~~~~~~~~~~~~~~~~~~~~--|--0~~~~~~~~~~~~~~--|
|--0~~~~~~~~~~~~~~~~~~~~~~~--|-------------------|
|--0~~~~~~~~~~~~~~~~~~~~~~~--|-------------------|


Chorus 1:
|----------------------------|
|----------------------------|
|---------------x-x-x-x-x-x--|
|---------------x-x-x-x-x-x--|
|---------------x-x-x-x-x-x--|
|---------------x-x-x-x-x-x--|

|---------------|---------------|---------------|---------------|
|---------------|---------------|---------------|---------------|
|---------------|---------------|---------------|---------------|
|---------------|---------------|---------------|---------------|
|--2---2-3-2-0--|--2---2-3-2-0--|--2---2-3-2-0--|--5-5-5-7-7-7--|
|--2---2-3-2-0--|--2---2-3-2-0--|--2---2-3-2-0--|--5-5-5-7-7-7--|

|---------------|---------------|---------------|---------------|
|---------------|---------------|---------------|---------------|
|---------------|---------------|---------------|---------------|
|---------------|---------------|---------------|---------------|
|--2---2-3-2-0--|--2---2-3-2-0--|--5-5-5-5-5-5--|--7-7-7-0-3----|
|--2---2-3-2-0--|--2---2-3-2-0--|--5-5-5-5-5-5--|--7-7-7-0-3----|

|---------------|---------------|---------------|---------------|
|---------------|---------------|---------------|---------------|
|---------------|---------------|---------------|---------------|
|---------------|---------------|---------------|---------------|
|--2---2-3-2-0--|--2---2-3-2-0--|--2---2-3-2-0--|--5-5-5-7-7-7--|
|--2---2-3-2-0--|--2---2-3-2-0--|--2---2-3-2-0--|--5-5-5-7-7-7--|

|---------------|---------------|---------------|---------------|
|---------------|---------------|---------------|---------------|
|---------------|---------------|---------------|---------------|
|---------------|---------------|---------------|---------------|
|--2---2-3-2-0--|--2---2-3-2-0--|--5-5-5-5-5-5--|--7-7-7-0-3----|
|--2---2-3-2-0--|--2---2-3-2-0--|--5-5-5-5-5-5--|--7-7-7-0-3----|


Verse 1:
|----------------------|
|----------8~~~~~~^^^--|
|----------------------|
|-----9~~~~~~~~~~~~~~--|
|--7~~~~~~~~~~~~~~~~~--|
|----------------------|

|----------------------------|----------------------|
|----------------------------|----------8~~~~~~^^^--|
|----------------------------|----------------------|
|--0~~~~~~~~~~~~~~~~~~~~~~~--|-----9~~~~~~~~~~~~~~--|
|--0~~~~~~~~~~~~~~~~~~~~~~~--|--7~~~~~~~~~~~~~~~~~--|
|--0~~~~~~~~~~~~~~~~~~~~~~~--|----------------------|

|----------------------------|----------------------|
|----------------------------|----------8~~~~~~^^^--|
|----------------------------|----------------------|
|--0~~~~~~~~~~~~~~~~~~~~~~~--|-----9~~~~~~~~~~~~~~--|
|--0~~~~~~~~~~~~~~~~~~~~~~~--|--7~~~~~~~~~~~~~~~~~--|
|--0~~~~~~~~~~~~~~~~~~~~~~~--|----------------------|

|----------------------------|----------------------|
|----------------------------|----------8~~~~~~^^^--|
|----------------------------|----------------------|
|--0~~~~~~~~~~~~~~~~~~~~~~~--|-----9~~~~~~~~~~~~~~--|
|--0~~~~~~~~~~~~~~~~~~~~~~~--|--7~~~~~~~~~~~~~~~~~--|
|--0~~~~~~~~~~~~~~~~~~~~~~~--|----------------------|

|----------------------------|-------------------|
|----------------------------|--3~~~~~~~~~~~~~~--|
|----------------------------|--2~~~~~~~~~~~~~~--|
|--0~~~~~~~~~~~~~~~~~~~~~~~--|--0~~~~~~~~~~~~~~--|
|--0~~~~~~~~~~~~~~~~~~~~~~~--|-------------------|
|--0~~~~~~~~~~~~~~~~~~~~~~~--|-------------------|


Chorus 2:
|----------------------------|
|----------------------------|
|---------------x-x-x-x-x-x--|
|---------------x-x-x-x-x-x--|
|---------------x-x-x-x-x-x--|
|---------------x-x-x-x-x-x--|

|---------------|---------------|---------------|---------------|
|---------------|---------------|---------------|---------------|
|---------------|---------------|---------------|---------------|
|---------------|---------------|---------------|---------------|
|--2---2-3-2-0--|--2---2-3-2-0--|--2---2-3-2-0--|--5-5-5-7-7-7--|
|--2---2-3-2-0--|--2---2-3-2-0--|--2---2-3-2-0--|--5-5-5-7-7-7--|

|---------------|---------------|---------------|---------------|
|---------------|---------------|---------------|---------------|
|---------------|---------------|---------------|---------------|
|---------------|---------------|---------------|---------------|
|--2---2-3-2-0--|--2---2-3-2-0--|--5-5-5-5-5-5--|--7-7-7-0-3----|
|--2---2-3-2-0--|--2---2-3-2-0--|--5-5-5-5-5-5--|--7-7-7-0-3----|

|---------------|---------------|---------------|---------------|
|---------------|---------------|---------------|---------------|
|---------------|---------------|---------------|---------------|
|---------------|---------------|---------------|---------------|
|--2---2-3-2-0--|--2---2-3-2-0--|--2---2-3-2-0--|--5-5-5-7-7-7--|
|--2---2-3-2-0--|--2---2-3-2-0--|--2---2-3-2-0--|--5-5-5-7-7-7--|

|---------------|---------------|---------------|---------------|
|---------------|---------------|---------------|---------------|
|---------------|---------------|---------------|---------------|
|---------------|---------------|---------------|---------------|
|--2---2-3-2-0--|--2---2-3-2-0--|--5-5-5-5-5-5--|--7-7-7-0-3----|
|--2---2-3-2-0--|--2---2-3-2-0--|--5-5-5-5-5-5--|--7-7-7-0-3----|


Verse 2:
|----------------------|
|----------8~~~~~~^^^--|
|----------------------|
|-----9~~~~~~~~~~~~~~--|
|--7~~~~~~~~~~~~~~~~~--|
|----------------------|

|----------------------------|----------------------|
|----------------------------|----------8~~~~~~^^^--|
|----------------------------|----------------------|
|--0~~~~~~~~~~~~~~~~~~~~~~~--|-----9~~~~~~~~~~~~~~--|
|--0~~~~~~~~~~~~~~~~~~~~~~~--|--7~~~~~~~~~~~~~~~~~--|
|--0~~~~~~~~~~~~~~~~~~~~~~~--|----------------------|

|----------------------------|----------------------|
|----------------------------|----------8~~~~~~^^^--|
|----------------------------|----------------------|
|--0~~~~~~~~~~~~~~~~~~~~~~~--|-----9~~~~~~~~~~~~~~--|
|--0~~~~~~~~~~~~~~~~~~~~~~~--|--7~~~~~~~~~~~~~~~~~--|
|--0~~~~~~~~~~~~~~~~~~~~~~~--|----------------------|

|----------------------------|----------------------|
|----------------------------|----------8~~~~~~^^^--|
|----------------------------|----------------------|
|--0~~~~~~~~~~~~~~~~~~~~~~~--|-----9~~~~~~~~~~~~~~--|
|--0~~~~~~~~~~~~~~~~~~~~~~~--|--7~~~~~~~~~~~~~~~~~--|
|--0~~~~~~~~~~~~~~~~~~~~~~~--|----------------------|

|----------------------------|-------------------|
|----------------------------|--3~~~~~~~~~~~~~~--|
|----------------------------|--2~~~~~~~~~~~~~~--|
|--0~~~~~~~~~~~~~~~~~~~~~~~--|--0~~~~~~~~~~~~~~--|
|--0~~~~~~~~~~~~~~~~~~~~~~~--|-------------------|
|--0~~~~~~~~~~~~~~~~~~~~~~~--|-------------------|

Chorus 2:
|----------------------------|
|----------------------------|
|---------------x-x-x-x-x-x--|
|---------------x-x-x-x-x-x--|
|---------------x-x-x-x-x-x--|
|---------------x-x-x-x-x-x--|

|---------------|---------------|---------------|---------------|
|---------------|---------------|---------------|---------------|
|---------------|---------------|---------------|---------------|
|---------------|---------------|---------------|---------------|
|--2---2-3-2-0--|--2---2-3-2-0--|--2---2-3-2-0--|--5-5-5-7-7-7--|
|--2---2-3-2-0--|--2---2-3-2-0--|--2---2-3-2-0--|--5-5-5-7-7-7--|

|---------------|---------------|---------------|---------------|
|---------------|---------------|---------------|---------------|
|---------------|---------------|---------------|---------------|
|---------------|---------------|---------------|---------------|
|--2---2-3-2-0--|--2---2-3-2-0--|--5-5-5-5-5-5--|--7-7-7-0-3----|
|--2---2-3-2-0--|--2---2-3-2-0--|--5-5-5-5-5-5--|--7-7-7-0-3----|

|---------------|---------------|---------------|---------------|
|---------------|---------------|---------------|---------------|
|---------------|---------------|---------------|---------------|
|---------------|---------------|---------------|---------------|
|--2---2-3-2-0--|--2---2-3-2-0--|--2---2-3-2-0--|--5-5-5-7-7-7--|
|--2---2-3-2-0--|--2---2-3-2-0--|--2---2-3-2-0--|--5-5-5-7-7-7--|

|---------------|---------------|---------------|---------------|
|---------------|---------------|---------------|---------------|
|---------------|---------------|---------------|---------------|
|---------------|---------------|---------------|---------------|
|--2---2-3-2-0--|--2---2-3-2-0--|--5-5-5-5-5-5--|--7-7-7-0-3----|
|--2---2-3-2-0--|--2---2-3-2-0--|--5-5-5-5-5-5--|--7-7-7-0-3----|


Interlude:
|-------------------|-------------------|
|----------8~~~~~~--|----------7~~~~~~--|
|-------------------|-------------------|
|-----9~~~~~~~~~~~--|-----7~~~~~~~~~~~--|
|--7~~~~~~~~~~~~~~--|--5~~~~~~~~~~~~~~--|
|-------------------|-------------------|

|-------------------|-------------------|
|----------8~~~~~~--|----------7~~~~~~--|
|-------------------|-------------------|
|-----9~~~~~~~~~~~--|-----7~~~~~~~~~~~--|
|--7~~~~~~~~~~~~~~--|--5~~~~~~~~~~~~~~--|
|-------------------|-------------------|

|-------------------|-------------------|
|----------8~~~~~~--|----------7~~~~~~--|
|-------------------|-------------------|
|-----9~~~~~~~~~~~--|-----7~~~~~~~~~~~--|
|--7~~~~~~~~~~~~~~--|--5~~~~~~~~~~~~~~--|
|-------------------|-------------------|

   P.M.------->            --------------------->            ---->
|----------------|----------------|----------------|----------------|
|----------------|--8-8-8---------|----------------|--8-8-8---------|
|----------------|----------------|----------------|----------------|
|---------9-9-9--|---------9-9-9--|---------9-9-9--|---------9-9-9--|
|--7-7-7---------|----------------|--7-7-7---------|----------------|
|----------------|----------------|----------------|----------------|
   
   ----------->            --------------------->            
|----------------|----------------|----------------|----------------|
|----------------|--7-7-7---------|----------------|--7-7-7---------|
|----------------|----------------|----------------|----------------|
|---------7-7-7--|---------7-7-7--|---------7-7-7--|---------7-7-7--|
|--5-5-5---------|----------------|--5-5-5---------|----------------|
|----------------|----------------|----------------|----------------|

|----------------|----------------|----------------|----------------|
|----------------|--8-8-8---------|----------------|--8-8-8---------|
|----------------|----------------|----------------|----------------|
|---------9-9-9--|---------9-9-9--|---------9-9-9--|---------9-9-9--|
|--7-7-7---------|----------------|--7-7-7---------|----------------|
|----------------|----------------|----------------|----------------|

|----------------|----------------|--------------------|------------|
|----------------|--7-7-7---------|--------------------|------------|
|----------------|----------------|--7--7--7--7--7--7--|--7-----R---|
|---------7-7-7--|---------7-7-7--|--x--x--x--x--x--x--|--x---------|
|--5-5-5---------|----------------|--5--5--5--5--5--5--|--5---------|
|----------------|----------------|--0--0--0--0--0--0--|--0---------|


Chorus 3:
|---------------|---------------|---------------|---------------|
|---------------|---------------|---------------|---------------|
|---------------|---------------|---------------|---------------|
|---------------|---------------|---------------|---------------|
|--2---2-3-2-0--|--2---2-3-2-0--|--2---2-3-2-0--|--5-5-5-7-7-7--|
|--2---2-3-2-0--|--2---2-3-2-0--|--2---2-3-2-0--|--5-5-5-7-7-7--|

|---------------|---------------|---------------|---------------|
|---------------|---------------|---------------|---------------|
|---------------|---------------|---------------|---------------|
|---------------|---------------|---------------|---------------|
|--2---2-3-2-0--|--2---2-3-2-0--|--5-5-5-5-5-5--|--7-7-7-0-3----|
|--2---2-3-2-0--|--2---2-3-2-0--|--5-5-5-5-5-5--|--7-7-7-0-3----|

|---------------|---------------|---------------|---------------|
|---------------|---------------|---------------|---------------|
|---------------|---------------|---------------|---------------|
|---------------|---------------|---------------|---------------|
|--2---2-3-2-0--|--2---2-3-2-0--|--2---2-3-2-0--|--5-5-5-7-7-7--|
|--2---2-3-2-0--|--2---2-3-2-0--|--2---2-3-2-0--|--5-5-5-7-7-7--|

|---------------|---------------|---------------|---------------|
|---------------|---------------|---------------|---------------|
|---------------|---------------|---------------|---------------|
|---------------|---------------|---------------|---------------|
|--2---2-3-2-0--|--2---2-3-2-0--|--5-5-5-5-5-5--|--7-7-7-0-3----|
|--2---2-3-2-0--|--2---2-3-2-0--|--5-5-5-5-5-5--|--7-7-7-0-3----|


Outro:
   P.M.>               ---->
|-------------------|-------------------|
|-------------------|-------------------|
|-------------------|-------------------|
|---------12-12-12--|---------12-12-12--|
|--2-2-2--10-10-10--|--2-2-2--10-10-10--|
|--2-2-2------------|--2-2-2------------|
   ---->               ---->
|-------------------|-------------------|
|-------------------|-------------------|
|-------------------|-------------------|
|---------12-12-12--|---------12-12-12--|
|--2-2-2--10-10-10--|--2-2-2--10-10-10--|
|--2-2-2------------|--2-2-2------------|
   ------>              ------>
|--------------------|--------------------|
|--------------------|--------------------|
|--------------------|--------------------|
|---------------11---|---------------11---|
|--0--0--0--0---9----|--0--0--0--0---9----|
|--0--0--0--0--------|--0--0--0--0--------|
   ------>              ------>
|--------------------|--------------------|
|--------------------|--------------------|
|--------------------|--------------------|
|---------------11---|---------------11---|
|--0--0--0--0---9----|--0--0--0--0---9----|
|--0--0--0--0--------|--0--0--0--0--------|
   ---->               ---->
|-------------------|-------------------|
|-------------------|-------------------|
|-------------------|-------------------|
|---------12-12-12--|---------12-12-12--|
|--2-2-2--10-10-10--|--2-2-2--10-10-10--|
|--2-2-2------------|--2-2-2------------|
   ---->               ---->
|-------------------|-------------------|
|-------------------|-------------------|
|-------------------|-------------------|
|---------12-12-12--|---------12-12-12--|
|--2-2-2--10-10-10--|--2-2-2--10-10-10--|
|--2-2-2------------|--2-2-2------------|
   ------>              ------>
|--------------------|--------------------|
|--------------------|--------------------|
|--------------------|--------------------|
|---------------11---|---------------11---|
|--0--0--0--0---9----|--0--0--0--0---9----|
|--0--0--0--0--------|--0--0--0--0--------|
   ------>              ------>
|--------------------|--------------------|
|--------------------|--------------------|
|--------------------|--------------------|
|---------------11---|----------------R---|
|--0--0--0--0---9----|--0--0--0--0--------|
|--0--0--0--0--------|--0--0--0--0--------|


Wow...i didn't think i was ever gonna get this tabbed!  Enjoy!





Comments


Popular 10 Years tabs & chords
Just Can't Win Bass Tabs
Through The Iris Bass Tabs
Actions And Motives Tabs
And All The Other Colors Tabs
Chasing The Rapture Tabs
Focus Tabs
Insects Tabs
Silhouette Of A Life Intro Tabs
Wakeing Up Tabs
Wasteland 2 Tabs


Song lyrics



↑ Back to top | Tablatures and chords are parodies/interpretations of the original songs. You may use it for private study, scholarship, research or language learning purposes only
© 2014 AZChords.com Contact us | Privacy policy | DMCA | Add/correct tabs | Request tabs | Top 50 tabs