» » »

10 Years, Half Life Tabs (ver.1)

Artists:  A B C D E F G H I J K L M N O P Q R S T U V W X Y Z # 

Half Life Tabs (ver.1)

10 Years Tabs
Rating:
0/5 (0 votes)
Half Life lessons Tabs too difficult? Try these video lessons and learn fast
                10 Years - Half Life
The Autumn Effect - Track 07

10 Years is a damn good band.  For some reason, they remind me of A Perfect Circle?
There are 2 guitars playing, but they play essentially the same thing.  I will specify
the fews parts where they play 2 different parts.  Please rate for me!

10/12 - Made small chorus change.  Now it should be perfect or close to it!

Tuning - Drop D 1/2 Step Down

INTRO
Guitar 1 - Dist.
Let ring throughout INTRO
eb|---------------------------------------------|
Bb|--------------------8----------8-------3-----|
Gb|---------------------------------------2-----|
Db|-feedback--2>>>---9----0-----9-----0---0-----|
Ab|----------------7------0---7-------0---0-----|
Db|-----------------------0-----------0---------|

Guitar 2 - Dist.      v--this is right! I just saw him play it live lastnite!
Eb|---------------------------------------------|
Bb|---------------------------------------3-----|
Gb|-------------------12---------12-------2-----|
Db|-feedback--2>>>---9----0-----9-----0---0-----|
Ab|----------------7------0---7-------0---0-----|
Db|-----------------------0-----------0---------|

Both Guitars - Dist.   2x
                 I know this seems wrong, but listen for it-------vv
Eb|------------------------------------------------------------------|
Bb|------------------------------------------------------------------|
Gb|------------------------------------------------------------------|
Db|xxxxxx-2------2------2------555-77(7)-2------2------555555-7777---|
Ab|xxxxxx-2-2320-2-2320-2-2320-555-77(7)-2-2320-2-2320-555555-777703-|
Db|xxxxxx-2-2320-2-2320-2-2320-555-77(7)-2-2320-2-2320-555555-777703-|

VERSE - Both Guitars
Let ring throughout except----v
eb|---------------------------10------------------------|
Bb|-----8----------8--------8---8---------8--------3----|
Gb|------------------------------------------------2----|
Db|---9----------9--------9-------------9----------0----|
Ab|-7------0---7-----0--7----------0--7------0-----0----|
Db|--------0---------0-------------0---------0----------|

Guitar 2 - Dist.
eb|---------------------------10------------------------|
Bb|-----------------------------8------------------3----|
Gb|----12----------12------12-------------12-------2----|
Db|---9----------9--------9-------------9----------0----|
Ab|-7------0---7-----0--7----------0--7------0-----0----|
Db|--------0---------0-------------0---------0----------|

CHORUS - 2x
Both Guitars - Dist.
Eb|------------------------------------------------------------------|
Bb|------------------------------------------------------------------|
Gb|------------------------------------------------------------------|
Db|xxxxxx-2------2------2------555-77(7)-2------2------555555-7777---|
Ab|xxxxxx-2-2320-2-2320-2-2320-555-77(7)-2-2320-2-2320-555555-777703-|
Db|xxxxxx-2-2320-2-2320-2-2320-555-77(7)-2-2320-2-2320-555555-777703-|

VERSE - Both Guitars
Let ring throughout except----v
eb|---------------------------10------------------------|
Bb|-----8----------8--------8---8---------8--------3----|
Gb|------------------------------------------------2----|
Db|---9----------9--------9-------------9----------0----|
Ab|-7------0---7-----0--7----------0--7------0-----0----|
Db|--------0---------0-------------0---------0----------|

Guitar 2 - Dist.
eb|---------------------------10------------------------|
Bb|-----------------------------8------------------3----|
Gb|----12----------12------12-------------12-------2----|
Db|---9----------9--------9-------------9----------0----|
Ab|-7------0---7-----0--7----------0--7------0-----0----|
Db|--------0---------0-------------0---------0----------|

CHORUS - 2x
Both Guitars - Dist.
Eb|------------------------------------------------------------------|
Bb|------------------------------------------------------------------|
Gb|------------------------------------------------------------------|
Db|xxxxxx-2------2------2------555-77(7)-2------2------555555-7777---|
Ab|xxxxxx-2-2320-2-2320-2-2320-555-77(7)-2-2320-2-2320-555555-777703-|
Db|xxxxxx-2-2320-2-2320-2-2320-555-77(7)-2-2320-2-2320-555555-777703-|

BRIDGE - Part 1
Guitar 1 - Dist.   Played 1x
eb|------------------------------------------|
Bb|-----8------7-----8-----7-----8------7----|
Gb|------------------------------------------|
Db|---9------7-----9-----7-----9------7------|
Ab|-7------5-----7-----5-----7------5--------|
Db|------------------------------------------|

Guitar 2 - Dist.
Palm Mute throughout    Played twice over Guitar 1
eb|------------------------------------------------------------|
Bb|------------------------------------------------------------|
Gb|------------------------------------------------------------|
Db|------------------------------------------------------------|
Ab|-----------22-22-22-22-00-00-00-00-22-22-22-22-00-00-00-00--|
Db|-----------22-22-22-22-00-00-00-00-22-22-22-22-00-00-00-00--|

BRIDGE - Part 2
Guitar 1 - Palm Mute Throughout
eb|------------------------------------------------------|
Bb|-------888----------888----------777----------777-----|
Gb|------------------------------------777---------------|
Db|----999---999----999---999----777----------777---777--|
Ab|-777----------777----------555----------555-----------|
Db|------------------------------------------------------|
Guitar 2 - Dist
Palm Mute Throughout
eb|------------------------------------------------------|
Bb|------------------------------------------------------|
Gb|------------------------------------------------------|
Db|------------------------------------------------------|
Ab|-222---222---222---222---000---000---000---000--------|
Db|-222---222---222---222---000---000---000---000--------|

BRIDGE - Part 3
Guitar 1 - Dist.
eb|--------------------------------------------------------|
Bb|-------888----------888----------777--------------------|
Gb|------------------------------------777--141414141414---|
Db|----999---999----999---999----777--------x-x-x-x-x-x----|
Ab|-777----------777----------555-----------121212121212---|
Db|--------------------------------------------------------|
Guitar 2
Palm Mute Until ----------------------------v
eb|--------------------------------------------------------|
Bb|--------------------------------------------------------|
Gb|-----------------------------------------141414141414---|
Db|-----------------------------------------x-x-x-x-x-x----|
Ab|2-(24x)--------------------0000000000000-121212121212---|
Db|2--------------------------0000000000000----------------|

Both Guitars - Dist.     2x
Eb|------------------------------------------------------------|
Bb|------------------------------------------------------------|
Gb|------------------------------------------------------------|
Db|-2------2------2------555-77(7)-2------2------555555-7777---|
Ab|-2-2320-2-2320-2-2320-555-77(7)-2-2320-2-2320-555555-777703-|
Db|-2-2320-2-2320-2-2320-555-77(7)-2-2320-2-2320-555555-777703-|

BREAKDOWN
Guitar 1 - Dist.
eb|-------------------------------------------------------------|
Bb|-------------------------------------------------------------|
Gb|-------------------------------------------------------------|
Db|-------------------------------------------------------------|
Ab|222-----222-----222-----222-----0000--0000---0000---0000-----|
Db|222-----222-----222-----222-----0000--0000---0000---0000-----|

Guitar 2 - Dist. - Flip your switch to the "rhythm" notch if you got it!
eb|-------------------------------------------------------------|
Bb|-------------------------------------------------------------|
Gb|---121212--121212--121212--121212--1111---1111---1111---1111-|
Db|---x-x-x---x-x-x---x-x-x---x-x-x---x-x----x-x----x-x----x-x--|
Ab|---101010--101010--101010--101010--9-9----9-9----9-9----9-9--|
Db|-------------------------------------------------------------|

Guitar 1 - Dist.
eb|----------------------------------------------------------|
Bb|----------------------------------------------------------|
Gb|----------------------------------------------------------|
Db|----------------------------------------------------------|
Ab|222-----222-----222-----222-----0000--0000---0000---0000--|
Db|222-----222-----222-----222-----0000--0000---0000---0000--|

Guitar 2 - Dist. - Flip your switch to the "rhythm" notch if you got it!
eb|----------------------------------------------------------|
Bb|----------------------------------------------------------|
Gb|---121212--121212--121212--121212--1111---1111---1111-----|
Db|---x-x-x---x-x-x---x-x-x---x-x-x---x-x----x-x----x-x------|
Ab|---101010--101010--101010--101010--9-9----9-9----9-9------|
Db|----------------------------------------------------------|
            

comments powered by Disqus
↑ Back to top | 10 Years Tabs for Half Life. Lyrics for acoustic guitar and electric guitar. Tablatures and chords are parodies/interpretations of the original songs. You may use it for private study, scholarship, research or language learning purposes only