» » »

Cast It Out Tabs (ver.2)

Artists:  A B C D E F G H I J K L M N O P Q R S T U V W X Y Z # 

Cast It Out Tabs (ver.2)

10 Years
Rating:
5/5 (1 vote)

Hard to play? Try these video lessons and learn fast.
                - "Cast It Out" 
- by 10 Years
- The Autumn Effect



Tuning: Drop-Db

Intro
-|-----------------------------------|-
-|-----------------------------------|-
-|-----------------------------------|-
-|-----------------------------------|-
-|-----------------------------------|-
-|-00000000555555553333333333333333--|-
   ................................

-|-----------------------------------|-
-|-----------------------------------|-
-|-----------------------------------|-
-|-----------------------------------|-
-|-55555555--------------------------|-
-|---------555555553333333333333333--|-
   ................................

(x2)
-|------------------------------------|-
-|------------------------------------|-
-|------------------------------------|-
-|-77777777-88888888-7777777777777777-|-
-|-55555555-55555555-3333333333333333-|-
-|-00000000-55555555-3333333333333333-|-

Verse 1 - "Touched with frustrated lips"
-|----------------------------------|-
-|----------------------------------|-
-|-----7----7----7----7-------------|-
-|-----x----x----x----x-----(5)(5)--|-
-|-----5----5----5----5-----(5)(5)--|-
-|-0-0---0-0--0-0--0-0------(5)(5)--|-
   . .   . .  . .  . .       .  .

Chorus(x2)
-|------------------------------------|-
-|------------------------------------|-
-|------------------------------------|-
-|-77777777-88888888-7777777777777777-|-
-|-55555555-55555555-3333333333333333-|-
-|-00000000-55555555-3333333333333333-|-

-|------------------------------------|-
-|------------------------------------|-
-|------------------------------------|-
-|-77777777-88888888-7777777777777777-|-
-|-55555555-55555555-3333333333333333-|-
-|-00000000-55555555-3333333333333333-|-

Verse 2 - "Drunk on failure's regrets"
-|-------------------------|-
-|-------------------------|-
-|-----7----7----7----7----|-
-|-----x----x----x----x----|-
-|-----5----5----5----5----|-
-|-0-0---0-0--0-0--0-0-----|-
   . .   . .  . .  . .       

Vocal/Drum Break
"While hopelessley feeling..."
-|----------|-
-|----------|-
-|----------|-
-|--(5)(5)--|-
-|--(5)(5)--|-
-|--(5)(5)--|-
     .  .

Chorus(x2)
-|------------------------------------|-
-|------------------------------------|-
-|------------------------------------|-
-|-77777777-88888888-7777777777777777-|-
-|-55555555-55555555-3333333333333333-|-
-|-00000000-55555555-3333333333333333-|-

-|------------------------------------|-
-|------------------------------------|-
-|------------------------------------|-
-|-77777777-88888888-7777777777777777-|-
-|-55555555-55555555-3333333333333333-|-
-|-00000000-55555555-3333333333333333-|-

Bridge
-|------------------------------------|-
-|------------------------------------|-
-|------------------------------------|-
-|-7700330-7755-50---7700330-7755-50--|-
-|-7700330-7755-50---7700330-7755-50--|-
-|-7700330-7755-50---7700330-7755-50--|-

-|------------------------------------|-
-|------------------------------------|-
-|------------------------------------|-
-|-7700330-7755-50---7700330-7755-50--|-
-|-7700330-7755-50---7700330-7755-50--|-
-|-7700330-7755-50---7700330-7755-50--|-

-|-----------------------------------|-
-|-----------------------------------|-
-|-----------------------------------|-
-|-----------------------------------|-
-|-----------------------------------|-
-|-00000000555555553333333333333333--|-
   ................................

-|-----------------------------------|-
-|-----------------------------------|-
-|-----------------------------------|-
-|-----------------------------------|-
-|-55555555--------------------------|-
-|---------555555553333333333333333--|-
   ................................

Chorus(one time only!)
-|------------------------------------|-
-|------------------------------------|-
-|------------------------------------|-
-|-77777777-88888888-7777777777777777-|-
-|-55555555-55555555-3333333333333333-|-
-|-00000000-55555555-3333333333333333-|-

-|------------------------------------|-
-|------------------------------------|-
-|------------------------------------|-
-|-77777777-88888888-7777777777777777-|-
-|-55555555-55555555-3333333333333333-|-
-|-00000000-55555555-3333333333333333-|-

Outro
-|------------------------------------|-
-|------------------------------------|-
-|------------------------------------|-
-|-7700330-7755-50---7700330-7755-50--|-
-|-7700330-7755-50---7700330-7755-50--|-
-|-7700330-7755-50---7700330-7755-50--|-

-|----------------------------------|-
-|----------------------------------|-
-|----------------------------------|-
-|-7700330-7755-50---7700330-7755---|-
-|-7700330-7755-50---7700330-7755---|-
-|-7700330-7755-50---7700330-7755---|-


That's it! Great song and great band. Enjoy!
            
Hard to play? Try these video lessons and learn fast. | Correct




comments powered by Disqus
↑ Back to top | Tablatures and chords are parodies/interpretations of the original songs. You may use it for private study, scholarship, research or language learning purposes only