» » »

10 Years, Cast It Out Tabs (ver.1)

Artists:  A B C D E F G H I J K L M N O P Q R S T U V W X Y Z # 

Cast It Out Tabs (ver.1)

10 Years Tabs
Rating:
3/5 (3 votes)
Cast It Out lessons Tabs too difficult? Try these video lessons and learn fast
                10 Years - Cast It Out
Track #5 off of "The Autumn Effect"

INTRO
Eb|-----------------------------------------------------------------------|
Bb|-----------------------------------------------------------------------|
Gb|-----------------------------------------------------------------------|
Db|-----------------------------------------------------------------------|
Ab|-0000000xx5555555xx333333333333333xx0000000xx5555555xx3333333333333333-|
Db|-0000000xx5555555xx333333333333333xx0000000xx5555555xx3333333333333333-|
    .......  .......  ...............  .......  .......  ................

VERSE/CHORUS - Play 2x
Be sure to notice that the guitars are simultaneously playing two different but similar parts!!!!
Guitar 1
Eb|--------------------------------|
Bb|--------------------------------|
Gb|--------------------------------|
Db|-00000000-88888888-55555555-----|
Ab|-00000000-55555555-33333333-----|
Db|-00000000-55555555-33333333-----|

Guitar 2
Eb|--------------------------------|
Bb|--------------------------------|
Gb|--------------------------------|
Db|-77777777-88888888-77777777-----|
Ab|-55555555-55555555-33333333-----|
Db|-00000000-55555555-33333333-----|

VERSE
Guitar 1
Eb|----------------------------------------|
Bb|----------------------------------------|
Gb|----------------------------------------|
Db|------12--------12-------12--------12---|
Ab|-0-00------0-00-----0-00------0-00------|
Db|-0-00------0-00-----0-00------0-00------|
    . ..      . ..     . ..      . ..                

VERSE/CHORUS - Play 4x
VERSE - Play 1x

BREAK - there is a background guitar playing, but its tough to hear....
Eb|-------------------------------------------------|
Bb|-------------------------------------------------|
Gb|-------------------------------------------------|
Db|-------------------------------------------------|
Ab|------------------------------------------xx-----|
Db|------------------------------------------xx-----|
Both Guitars - no guitars until 1:37 ------> ^^

VERSE/CHORUS - Play 2x

BRIDGE - 4x
Eb|-----------------------------------|
Bb|-----------------------------------|
Gb|-------------14-14-12-12--12-------|
Db|-77-00-333---x--x--x--x---x--------|
Ab|-77-00-333-0-12-12-10-10--10-------|
Db|-77-00-333-0-----------------------|

INTRO - Play 2x
VERSE/CHORUS - Play 2x
BRIDGE - Play 4x
            
Submit corrections

comments powered by Disqus
↑ Back to top | 10 Years Tabs for Cast It Out. Lyrics for acoustic guitar and electric guitar. Tablatures and chords are parodies/interpretations of the original songs. You may use it for private study, scholarship, research or language learning purposes only