» » »

10cc, Silly Love Tabs (ver.1)

Artists:  A B C D E F G H I J K L M N O P Q R S T U V W X Y Z # 

Silly Love Tabs (ver.1)

10cc Tabs
 Rating:
4/5 (4 votes)
Silly Love lessons Tabs too difficult? Try these video lessons and learn fast
1
                                       A              F#
E----------------------5--------------2-|
B----------------------5--------------2-|
G----------------------6--------------3-|
D----------------------7--------------4-|
A-------6-6-6-6-6--6-6-7-6-6-6-6-6--6-4-|
E-0-2-3-4-4-4-4-4--4-4-5-4-4-4-4-4--4-2-|



E-------------------|
B-------------------|
G-------------------|
D-------------------|
A------0-0-1-1-2-2--|
E--4-4--------------|

C
Het toots you put the life into living
Ab              D         G    C
you brought a sigh into sight  Ah Hon you
                        Ab
make my legs turn to water you bring the
D              G        D
stars out at night but they ain't half
    G               C     Eb   C   B  Bb
as bright as your eyes
C
Gee whiz you take the beauty out of
       Ab               D             G
beautiful you play the strings of my heart
C
oh babe you take the wonder out of
        Ab               D
wonderful oh my oh my oh my if you were
 G        D                  G
mine the rain would turn to sweet, sweet
C     Eb   C   B  Bb  A  Ab  G  Ab  A
wine
                            A7
Well he's ben up all night breakin his

headin two to write a little sonnet for

his chickadee  but between you and me
                         A    Ab  F#
I think it's s s s s ssilly
A

C                                      Ab
Oh treas you got a smile like a rembrandt
                  D          G
aha you got the style of a queen
C
O dear you are the petal of a rosebud
Ab                       D
and next to you all the others could
     G      D             G
be weeds you're the only one my garden
  C   Eb    C   B   Bb   C   Eb  C  B  Bb
needs
B
(trill)

E
Ooh you know the art of converstion must
    B      Ab7
be dying  ooh when a romance depends
    Dbm         E           F#9
on cliches and toupees and threepees

                       A              F#
E----------------------5--------------2-|
B----------------------5--------------2-|
G----------------------6--------------3-|
D----------------------7--------------4-|
A-------6-6-6-6-6--6-6-7-6-6-6-6-6--6-4-|
E-0-2-3-4-4-4-4-4--4-4-5-4-4-4-4-4--4-2-|
            
Submit corrections

comments powered by Disqus
↑ Back to top | 10cc Tabs for Silly Love. Lyrics for acoustic guitar and electric guitar. 1 Tablatures and chords are parodies/interpretations of the original songs. You may use it for private study, scholarship, research or language learning purposes only