>
 >
I'm Not In Love

I'm Not In Love Guitar Tabs

10cc - I'm Not In Love chords, tabs, tablatures, lyrics

Guitar lessons | Add/correct | Request | Top 50 tabs Artists:  A B C D E F G H I J K L M N O P Q R S T U V W X Y Z 0-9

I'm Not In Love Guitar Tabs – 10cc

CD, Sheet music, Poster

Do you like I'm Not In Love? Share with your friends now
ChordsChords v2TabsTabs v2
---------------------------------------------------------------------------
---------------------------------------------------------------------------
Tuning: Standard

10cc
I'm not in love (1975)
(Stewart/Gouldman)



INTERLUDE (Capo 2nd fret)
  D                                 Bm (freely)
e|----------------|----------------|-------------------------2-------|
B|3---------------|3-----2-----0---|3---2-3-2-------------------5--3-|
G|2---------------|2---------------|4---------4---0-4-0--------------|
D|0---------------|0---------------|4-------------------4---(4)(2)(0)|
A|----------------|----------------|2--------------------------------|
E|----------------|----------------|---------------------------------|
  [F#m             F#/A#*           Bm (freely)]
e|----------------|----------------|---------------------------------|
B|2---------------|2---------------|3--------------------------------|
G|2---------------|3---------------|4--------------------------------|
D|4---------------|----------------|------------/4-2-----------------|
A|----------------|1---------------|2----------------/4-2------------|
E|2---------------|----------------|----------------------5-2-0-2--/2|
                                                [bass]
 [G/A                               A
e|----------------|----------------|----------------|----------------|
B|----------------|----------------|----------------|----------------|
G|----------------|----------------|----------------|----------------|
D|----------------|----------------|----------------|----------------|
A|5-------5-------|5-----5-----5---|4---------------|----------------|
E|----------------|----2-----2-----|---5---5--------|2----5--2-------|
 (be quiet, big boys don't cry, big boys don't cry, big boys don't cry)

  G/A                               A]
e|----------------|----------------|----------------|----------------|
B|----------------|----------------|----------------|----------------|
G|----------------|----------------|----------------|----------------|
D|----------------|----------------|----------------|/4--2-----2-2\--|
A|5-------5-------|5-----5-----5---|4---------------|-------/4-------|
E|----------------|----2-----2-----|---5-5-5--------|----------------|
 (big boys don't cry, big boys don't cry, big boys don't cry [FADE])  

  G/A                               A                        A#dim7
e|----------------|----------------|----------------|----------------|
B|----------------|----------------|----------------|----------------|
G|----------------|----------------|----------------|----------------|
D|----------------|----------------|----------------|----------------|
A|5-------5-------|5-----5-----5---|4---------------|--------1-------|
E|----------------|----2-----2-----|---5-5-5-5------|5---------------|

---------------------------------------------------------------------------

CHORDS

        e-B-G-D-A-E
G/A     0-3-4-5-0-x
A*      0-5-6-7-0-x
A#dim7  0-2-0-2-1-x
F#m/A#* 2-2-3-x-1-x
Bm/A    2-3-4-4-0-x
G/D*    3-3-4-0-x-x
F/D*    5-6-5-0-x-x

I suggest the following voicings for the middle 8 to highlight the bass line.

Gm      3-3-3-5-x-x
Gm/F    3-3-3-3-x-x
C/E     0-1-0-2-x-x
C       0-1-0-2-3-x
F       1-1-2-3-x-x
F/E     1-1-2-2-x-x
F/D     1-1-2-0-x-x
F/C     1-1-2-x-3-x
C/D     0-1-0-0-x-x
D       2-3-2-0-x-x

---------------------------------------------------------------------------

Capo 2nd fret


INTRO 
| G/A | G/A | A* | A* | G/A | G/A | A* | A* |
| G/A | G/A | A* | A* | G/A | G/A | A* | A* A#dim7 |

G                  Gm
  I'm not in love, so don't forget it
F#m           F#/A#*          Bm           Bm/A
  It's just a silly phase I'm going through
G                  Gm
  And just because   I call you up,
F#m            F#/A#*                    Bm           Bm/A
  Don't get me wrong, don't think you've got it made
G                     A6         D   G/D*   F/D*   G/D*
  I'm not in love, no no, it's because ...

G                    Gm
  I like to see you, but then again,
F#m            F#/A#*             Bm           Bm/A
  That doesn't mean you mean that much to me
G                   Gm
  So if I call you, don't make a fuss,
F#m               F#/A#*            Bm           Bm/A
  Don't tell your friends about the two of us
G                     A6         D   
I'm not in love, no no, it's because...

INTERLUDE (see above)

G                     Gm
  I keep your picture   upon the wall
F#m          F#/A#*             Bm           Bm/A
  It hides a nasty stain that's lying there
G                     Gm
  So don't you ask me   to give it back
F#m                  F#/A#*            Bm           Bm/A
  I know you know it doesn't mean that much to me
G                     A6         D   
  I'm not in love, no no, it's because ...

Gm Gm/F        C/E         C        F  F/E  F/D  F/C
Oooooh, you'll wait a long time for me
Gm Gm/F        C/E         C        C/D  D
Oooooh, you'll wait a long time 
Gm Gm/F        C/E         C        F  F/E  F/D  F/C
Oooooh, you'll wait a long time for me
Gm Gm/F        C/E         C        C/D  D
Oooooh, you'll wait a long time 

G                  Gm
  I'm not in love, so don't forget it
F#m           F#/A#*          Bm           Bm/A
  It's just a silly phase I'm going through
G                  Gm
  And just because   I call you up,
F#m            F#/A#*                    Bm           Bm/A
  Don't get me wrong, don't think you've got it made
G                  Gm
  I'm not in love,   I'm not in love

OUTRO
|: G/A | G/A | A* | A* :|

[FADE]





Comments


Popular 10cc tabs & chords
The Hospital Song Bass Tabs
Donna Chords
Good Morning Judge Chords
Dreadlock Holiday Tabs
Dreadlock Holiday 1 Tabs
I Bought A Flat Guitar Tutor Tabs
Rock N Roll Lullabye Tabs
The Things We Do For Love 1 Tabs
Wall Street Shuffle Tabs
Good Morning Judge Ukulele


Song lyrics



↑ Back to top | Tablatures and chords are parodies/interpretations of the original songs. You may use it for private study, scholarship, research or language learning purposes only
© 2014 AZChords.com Contact us | Privacy policy | DMCA | Add/correct tabs | Request tabs | Top 50 tabs