» »

/0-9/1017-tabs-42489.html

»

1017, Seloso Tabs (ver.1)

Artists:  A B C D E F G H I J K L M N O P Q R S T U V W X Y Z # 

Seloso Tabs (ver.1)

1017 Tabs
 Rating:
4.2/5 (5 votes)
Seloso lessons Tabs too difficult? Try these video lessons and learn fast
                
Intro: G-D-Bm-C (2x)

e----------------------------------------------------I
b----------------------------------------------------I
g----------------------------------------------------I
d----------------------------------------------------I
a-------55-55---77-7--8-8------55-55---77-7--8-8-----I
E---33---------------------33------------------------I

verse:

e------------------------------------------------------------------I
b------------------------------------------------------------------I
g------------------------------------------------------------------I
d-----444-5--444-5--444-5--444-5---444-5---444-5--444-5--444-5-----I
a-----------5------2------3--------------5-------2------3----------I
E---33---------------------------33--------------------------------I

e----------------------------------------------------I
b----------------------------------------------------I
g----------------------------------------------------I
d----------------------------------------------------I
a----------------------------------------------------I
E---77-7---88---77-88-8......------------------------I


e------------------------------------------------------------------I
b------------------------------------------------------------------I
g------------------------------------------------------------------I
d-----444-5--444-5--444-5--444-5---444-5---444-5--444-5--444-5-----I
a-----------5------2------3--------------5-------2------3----------I
E---33---------------------------33--------------------------------I

e----------------------------------------------------I
b----------------------------------------------------I
g----------------------------------------------------I
d----------------------------------------------------I
a----------------------------------------------------I
E---77-7---88---77-88-8......------------------------I

Chorus:

e----------------------------------------------------I
b----------------------------------------------------I
g----------------------------------------------------I
d----------------------------------------------------I
a---99-9-----1010----99---1010---10------------------I
E---77-7------88-----77----88-----8------------------I

e----------------------------------------------------I
b----------------------------------------------------I
g----------------------------------------------------I
d----------------------------------------------------I
a---77----99----1010---1212--------------------------I
E---55----77-----88----1010--------------------------I

G               D        Bm            C
Ang labi mo'y nakangiti pag kasama mo palagi
G              D           Bm           C
To the max ang lambingan para di ka na bibitawan
Bm          C       Bm            C
Ayoko nang ganito, nagseselos na ako..
G        D            Bm            C
Oo nga mayaman siya, malakas naman mambola
G               D            Bm            C
Mahirap lang naman ako pero pag-ibig ko'y totoo
Bm          C       Bm             C
Ayoko nang ganito, nagseselos na ako

Chorus:
           G      D       Bm           C
Bumalik ka na sa akin at ulitin natin ang lahat
   G             D          Bm            C
Pag-ibig mo't pag-ibig ko'y hinding-hindi magbabago
 Bm           C          Bm               C
Patawad kung nagkamali, matatanggap pa ba muli
    Am   Bm    C      D       G-D-Bm-C
Ang puso ko ay nasasabik sa'yo...
(mali ung lyrics dito sa last line I think...syenxa na po)

e----------------------------------------------------I
b----------------------------------------------------I
g----------------------------------------------------I
d----------------------------------------------------I
a-------55-55---77-7--8-8------55-55---77-7--8-8-----I
E---33---------------------33------------------------I

G               D             Bm           C
Hindi ba't tayo nung una ang lakas mong tumawa
 G               D            Bm     C
Abot langit ang saya ba't sa iba ka pa sumama
Bm        C       Bm            C
Ayoko ng ganito, nagseselos na ako

Chorus:
           G      D       Bm           C
Bumalik ka na sa akin at ulitin natin ang lahat
   G             D          Bm            C
Pag-ibig mo't pag-ibig ko'y hinding-hindi magbabago
 Bm           C          Bm               C
Patawad kung nagkamali, matatanggap pa ba muli
    Am   Bm    C      D       [adlib]
Ang puso ko ay nasasabik sa'yo...(sabik)

adlib....G-D-Bm-C(4x)

[chorus]3x

   G-D-Bm
sayo....
C           (G-D-Bm-C)3x
 Bumalik ka na...

....Am-Bm-C-D...G(hold)

coda:
e------------------------------------------------------------------------I
b------------------------------------------------------------------------I
g------------------------------------------------------------------------I
d------------------------------------------------------------------------I
a-------55-55---77-7--8-8------55-55---77-7--8-8------55-55---77-7--8-8--I
E---33---------------------33---------------------33---------------------I


e----------------------------------------------------I
b----------------------------------------------------I
g----------------------------------------------------I
d----------------------------------------------------I
a----------------------------------------------------I
E---55----77-----88----1010----3(hold)---------------I

[fin]

hi to all my friends...rocky, francis...john..lloyd....rogelio!....
            
Submit corrections

comments powered by Disqus
↑ Back to top | 1017 Tabs for Seloso. Lyrics for acoustic guitar and electric guitar. Tablatures and chords are parodies/interpretations of the original songs. You may use it for private study, scholarship, research or language learning purposes only