>
 >
Seloso 1

Seloso 1 Guitar Tabs

1017 - Seloso 1 chords, tabs, tablatures, lyrics

Guitar lessons | Add/correct | Request | Top 50 tabs Artists:  A B C D E F G H I J K L M N O P Q R S T U V W X Y Z 0-9

Seloso 1 Guitar Tabs – 1017

CD, Sheet music, Poster

Do you like Seloso 1? Share with your friends now
TabsTabs v2



Drum beat then:

Guitar 2:
e--------------------------|
b--------------------------|
g--------7777--4444-5555---|
D--5555--7777--4444-5555---|
A--5555--5555--2222-3333---|
E--3333--------------------|

Guitar 1:
e----------------------------------------------------------------------------------|
b----------------------------------------------------------------------------------|
g--------7777--4444-5555-555-777-1212--1212-111-9999-7777--5555---4444--5555--5~---|
D--5555--7777--4444-5555-xxx-xxx-xxxx--xxxx-xxx-xxxx-xxxx--xxxx---4444--5555--5~---|
A--5555--5555--2222-3333-333-555-1010--1010-999-7777-5555--3333---2222--3333--3~---|
E--3333----------------------------------------------------------------------------|

Verse :

Guitar 1:

Ang labi mo'y...
e------------------------------------------------------------------|
b------------------------------------------------------------------|
g------------------------------------------------------------------|
d-----444-5--444-5--444-5--444-5---444-5---444-5--444-5--444-5-----|
a-----------5------2------3--------------5-------2------3----------|
E---33---------------------------33--------------------------------|

To the max ...
e------------------------------------------------------------------|
b------------------------------------------------------------------|
g------------------------------------------------------------------|
d-----444-5--444-5--444-5--444-5---444-5---444-5--444-5--444-5-----|
a-----------5------2------3--------------5-------2------3----------|
E---33---------------------------33--------------------------------|

Ayoko nang....
e----------------|
b----------------|
g--4444---5555---|
D--4444---5555---|
A--2222---3333---|
E----------------|
nagseselos ...
e----------------|
b----------------|
g--4444---5555---|
D--4444---5555---|
A--2222---3333---|
E----------------|

Oo nga mayaman...
e------------------------------------------------------------------|
b------------------------------------------------------------------|
g------------------------------------------------------------------|
d-----444-5--444-5--444-5--444-5---444-5---444-5--444-5--444-5-----|
a-----------5------2------3--------------5-------2------3----------|
E---33---------------------------33--------------------------------|

Mahirap ...
e------------------------------------------------------------------|
b------------------------------------------------------------------|
g------------------------------------------------------------------|
d-----444-5--444-5--444-5--444-5---444-5---444-5--444-5--444-5-----|
a-----------5------2------3--------------5-------2------3----------|
E---33---------------------------33--------------------------------|

Ayoko nang......
e----------------|
b----------------|
g--4444---5555---|
D--4444---5555---|
A--2222---3333---|
E----------------|

nagseselos...
e----------------|
b----------------|
g--4444---5555---|
D--4444---5555---|
A--2222---3333---|
E----------------|

Chorus:

Bumalik ka na....                   Pag-ibig mo't
e---------------------------------|-----------------------------------|
b---------------------------------|-----------------------------------|
g-----------77777--44444--555555--|------------7777777--44444--5555---|
D---55555---77777--44444--555555--|--555555----7777777--44444--55555--|
A---55555---55555--22222--333333--|--555555----5555555--22222--33333--|
E---33333-------------------------|--333333---------------------------|

Patawad k..
e----------------|
b----------------|
g--4444---5555---|
D--4444---5555---|
A--2222---3333---|
E----------------|

matatanggap...       Ang puso...
e----------------|-----------------------------|
b----------------|-----------------------------|
g--4444---5555---|--------------5555---777777--|
D--4444---5555---|--7777--9999--5555---777777--|
A--2222---3333---|--7777--9999--3333---555555--|
E----------------|--5555--7777-----------------|

Intro:
e----------------------------------------------------------------|
b----------------------------------------------------------------|
g--121212-x-121212--121212-1111-9999--7777--5555--4444-5555-5~---|
D--xxxxxx-x-xxxxxx--xxxxxx-xxxx-xxxx--xxxx--xxxx--4444-5555-5~---|
A--101010-x-101010--101010-9999-7777--5555--3333--2222-3333-3~---|
E----------------------------------------------------------------|

Hindi ba't
e------------------------------------------------------------------|
b------------------------------------------------------------------|
g------------------------------------------------------------------|
d-----444-5--444-5--444-5--444-5---444-5---444-5--444-5--444-5-----|
a-----------5------2------3--------------5-------2------3----------|
E---33---------------------------33--------------------------------|
e------------------------------------------------------------------|

Abot langit...
b------------------------------------------------------------------|
g------------------------------------------------------------------|
d-----444-5--444-5--444-5--444-5---444-5---444-5--444-5--444-5-----|
a-----------5------2------3--------------5-------2------3----------|
E---33---------------------------33--------------------------------|

Ayoko ...
e----------------|
b----------------|
g--4444---5555---|
D--4444---5555---|
A--2222---3333---|
E----------------|

nagseselos
e----------------|
b----------------|
g--4444---5555---|
D--4444---5555---|
A--2222---3333---|
E----------------|

Do chorus :
Adlib: G-D-Bm-C -4x ata...hehehe





Comments


Popular 1017 tabs & chords
Ako Na Lang Chords
Berting Chords
Charing 2 Chords
Sana 2 Chords
2k2papa Tabs
Charing 2 Tabs
Ibun Tabs
Sana 2 Tabs
Berting Ukulele
Textmate Ukulele


Song lyrics



↑ Back to top | Tablatures and chords are parodies/interpretations of the original songs. You may use it for private study, scholarship, research or language learning purposes only
© 2014 AZChords.com Contact us | Privacy policy | DMCA | Add/correct tabs | Request tabs | Top 50 tabs