» »

/0-9/1017-tabs-42489.html

»

1017, Charing Tabs (ver.1)

Artists:  A B C D E F G H I J K L M N O P Q R S T U V W X Y Z # 

Charing Tabs (ver.1)

1017 Tabs
 Rating:
3.1/5 (7 votes)
Charing lessons Tabs too difficult? Try these video lessons and learn fast
1
                BAND:1017

Intro: D- C#m/A- bm F#m G- D- A-

     D      C#/A   Bm  F#m  G  D   A
e------------------------------------|
B----5------4------------------------|
G----7------6------4-----------7-----|
D----7------7------4----4---5—-7---7-|
A----5------4------2----4---5—-5---7-|
E-----------------------2---3------5-|

LEAD PART(upstroke)
e----------|
B----5-5---|
G----------| (10x)
D----------|
A----------|
E----------|

CHORUS:(*PINCH HARMONICS)

     D     C#/A   Bm  F#m  G      D      A
e------------------------------------------------|
B------7----6------4--------12--11--9-7*-----12--|
G------------------------------------------------|
D----------------------------------------7-------|
A----5---5-4----4-2----9*-10—-9---7------7-------|
E----------------------------------------5-------|


VERSE:
D              C#m/A           Bm F#m
 AyAw nA taG ilARa pA

G                     D             A
 ky kAiLA nAq sa imUHa
          D                  C#m/A  Bm F#m
 naGPa sWeEt2x pKa sA aq..

G                          D                A
 ikUGaN mAN d i kaNG dAKo..

REF:
Em                                  A
 iNGon pKa nA sEXy kA..

D                                   Bm
 nA moDEL kAS pERLa..

G
 pRO kAD2nG naG i.bOL tAh..
A
 bARakO mAN d i kA..

Chorus:
         D             C#m/A               Bm F#m
  cHaRinG nAiLaD q sA bUinG..
G                 D                             A
 cHaRinG kaSAkit sA kASinG kASinG..
 cHaRinG nAiLaD q sA bUinG..
 cHaRinG miHaLOk pA saKOnG aPinG..
 dODOng cHaRinG


REPEAT VERSE CHORDS
 naGPaDaLA q uG dyESmEL..
 kE naGToO q uSa kA kaAnGeL..
 naSAyanG LanG aKOnG kWaRta..
 dEMeNyO mAN d i kAnG kaGWanGa kA..

REPEAT REFRAIN
 inGOn pa ka na sEXy ka..
 na mODeL kaS peRLa..
 pRO kaDtonG naG i.bOL tAh..
 baRaKO man d i Ka

ADLIB: D- C#m/A- bm F#m G- D- A-(2X)
(WORKING FOR ADLIB)

cHaRinG nAiLaD q sA bUinG
cHaRinG kaSAkit sA kASinG2x
cHaRinG nAiLaD q sA bUinG..
cHaRinG miHaLOk pA saKOnG aPinG..
dODOnG cHaRinG...
dODOnG cHaRINg
dODOnG CHaRing
            
Submit corrections

comments powered by Disqus
↑ Back to top | 1017 Tabs for Charing. Lyrics for acoustic guitar and electric guitar. 1 Tablatures and chords are parodies/interpretations of the original songs. You may use it for private study, scholarship, research or language learning purposes only