» »

/0-9/1017-tabs-42489.html

»

1017, Charing Bass tabs (ver.1)

Artists:  A B C D E F G H I J K L M N O P Q R S T U V W X Y Z # 

Charing Bass tabs (ver.1)

1017 Tabs
Rating:
1/5 (1 vote)
Charing lessons Tabs too difficult? Try these video lessons and learn fast
                
Intro:
G------------------------------------------------------------I
D------------------------------------------------------------I
A-----5--4-2----------------5--5s9--7----4h5--4--------------I
E----------------0s2--2--3--------------5-----------10s5-----I

G------------------------------------I
D------------------------------------I
A----5--4--2---------5—5s9-7---------I
E------------0s2-2-3---------5-55555—I
Verse:
G------------------------------------I
D------------------------------------I
A----5--4--2---------5—5s9-7---------I
E------------0s2-2-3---------5-55555—I

Ayaw na ko'g ilara pah..
kaila na ko sa imuha
magpa sweet2x pa ka sa ako
ikugan man diay kang dako..

Refrain 1:
G------------------------------------------------------I
D------------------------------------------------------I
A----7777------------------2222-----------------—------I
E------------5555--2222----------33333333--55555555----I

Ingon pa ka na gwapa kah..
na model ka's perla
pero katong nag eye-ball ta
barako man day kah..

Chorus:
G--------------------------------------I
D--------------------------------------I
A----5--4--2----------5—5s9--9---------I   2x
E-------------0s2-2-3----------5-55555—I

Charing.. Nailad ko sa buing..
Charing.. Kasakit sa kasing kasing.. 
Charing.. Nailad ko sa buing..
Charing.. mihalok pa sa'kong aping.. 
si dodong charing..

Verse:
Nagpadala ko ug dyesmil
kay nagtuo ko ikaw usa ka angel..
nasayang lang jud ang akong kwarta
demonyo man diay kang kagwanga kah..

Refrain 2:
Ingon pa ka na sexy kah..
na model ka's perla
pero katong nag eye-ball ta
macho man day kah..

(Repeat Chorus)

Adlib:
G---------------------------------------I
D---------------------------------------I
A----5--4--2----------5—5s9--7----------I
E-------------0s2-2-3----------5-55555--I
(Repeat refrain 2)
(Repeat chorus)

-----------------------------
i'm edmar of davao..

hi to all my friends in ama computer college!
rakrakan nah!
            
Submit corrections

comments powered by Disqus
↑ Back to top | 1017 Bass for Charing. Lyrics for acoustic guitar and electric guitar. Tablatures and chords are parodies/interpretations of the original songs. You may use it for private study, scholarship, research or language learning purposes only