» » »

Zz Top - I'm Bad, I'm Nationwide Bass

Artists:  A B C D E F G H I J K L M N O P Q R S T U V W X Y Z # 

I'm Bad, I'm Nationwide Bass

(ver. 1) Click to play this song!
Zz Top
 Rating:
3.3/5 (6 votes)


 I'm Bad, I'm Nationwide lessons Tabs too difficult? Try these video lessons and learn fast
 
                "

Tuning:standared Low to high (EADGBE).
   I seen that there was no bass tab so i took the time to tab it out for the bass 
i hope you enjoy.

   KEY
    h=hammer on


 staff A
G|-----------------2h3-2h3-2h3----------------------------------------------|
D|--------------------------------------------------------------------------|
A|-3-3-3-3-3-3-3-3-------------2-3-3-3-3-3-3-3------------------------------|
E|---------------------------------------------3----------------------------|
 Staff B
G|-5-3--------------------------|
D|-3-1-----------------1-3------|
A|-----3-3-x-3-3-3-1------------|  Play staff B 4x
E|-------------------3----------|
 Verse
G|--------------------------------------------------------------------------|
D|-----------------1-3-----------------1-2-3-3-x-3-3-3----------------------|
A|-3-3-x-3-3-3-1-------3-3-x-3-3-3-1-------------------0-1-2----------------|
E|---------------3-------------------3--------------------------------------|

G|--------------------------------------------------------------------------|
D|-----------------1-3-----------------1-3-----------------1-2--------------|
A|-3-3-x-3-3-3-1-------3-3-x-3-3-3-1-------3-3-x-3-3-3-1--------------------|
E|---------------3-------------------3-------------------3------------------|

G|---------------------------------------------------------------------------|
D|-3-3-x-3-3-3-----------------------1-2-3-3-3-3-3-3-----3-------------------|
A|-------------0-1-2-3-3-x-3-3-3-1-------------------0-1---------------------|
E|---------------------------------3-----------------------------------------|

G|--------------------------------------------------------------------------|
D|-3-3-3-3-3-------------------------1------------------1-2-----------------|
A|-----------0-1-1-2-3-3-3-3-3-3-1-----3-3-3-3-3-3-1------------------------|
E|---------------------------------3-----------------3----------------------|

G|----------------------------------------------5-3-------------------------|
D|-3-3-3-3-3-3-------------------------1-3------3-1-------------------------|
A|-------------0-1-3---3-3-3-3-3-3-1----------------------------------------|
E|-------------------1---------------3--------------------------------------|
 Staff E
G|---------------------|
D|---------------------|
A|-3-3-x-3-3-3-1---1-3-|  Play 3x
E|---------------3-----|

G|--------------|
D|---3-3--------|
A|-3-----0-1-2--|
E|--------------|
     Now play staff E twice

 Bass fig. 2
G|----------------------|
D|-----------------1-3--|
A|-3-3-x-3-3-3-1--------|  Play bass fig.2 18x
E|---------------3------|

G|--------------------------------------------------------------------------|
D|-----------------1-3---3-3------------------------------------------------|
A|-3-3-x-3-3-3-1-------3-----3-3-3-3-3-3-3-3--------------------------------|
E|---------------3----------------------------------------------------------|

G|-2h3-2h3-2h3-------------------------5-3----------------------------------|
D|-------------------------------------3-1----------------------------------|
A|-------------2-3-3-x-3-3-3-3----------------------------------------------|
E|-----------------------------3--------------------------------------------|
 Bass fig. 3
G|-5-3----------------------------------------------------------------------|
D|-3-1----------------------------------------------------------------------|
A|-----2-3-3-3-3-3-3-3-3-3-3-3-3-3-3-3--------------------------------------|
E|--------------------------------------------------------------------------|
                                                                /Bass fig. 4
G|---------------------------------------------------------------------------|
D|---------------------------------------------------------------------------|
A|-2-3-3-3-3-3-3-3-3-3-3-3-3-3-3-2-3-3-3-3-3-3-3-3-3-3-3-3-3-3-3-3-1---------|
E|-------------------------------------------------------------------3-2-1-0-|
                          \
G|-------------------------|
D|-------------------------|
A|-------1-----------------|
E|-1-2-3---3-2-1-0-1-2-----|

         Bass plays fig. 3 3x
         Bass plays fig. 4 1x
         Bass plays fig. 3 7x
         Bass plays fig. 4 1x
         Bass plays fig. 3 7x
         Bass plays fig. 4 1x
         Bass plays fig. 3 3x
         Bass plays fig. 4 1x
         Bass plays fig. 3 3x
         Bass plays fig. 4 1x
         Bass plays fig. 3 3x
         Bass plays fig. 4 1x
"            
Submit corrections



        I'm Bad, I'm Nationwide lessons Hard to play? Try these video lessons and learn fast I'm Bad, I'm Nationwide lessons
        
↑ Back to top | Tablatures and chords for acoustic guitar and electric guitar, ukulele, drums are parodies/interpretations of the original songs. You may use it for private study, scholarship, research or language learning purposes only