Home » Z » Zz Top »

Zz Top - Chevrolet Tabs

Artists:  A B C D E F G H I J K L M N O P Q R S T U V W X Y Z # 

Chevrolet Tabs

(ver. 1) Click to play this song!
Zz Top
[Intro]
   This x2
e|--12------------------------------------------------------------------------|
B|--x--15-12------------------------------------------------------------------|
G|-----------pb16r14p12------------2------------------------------------------|
D|----------------------14--2-------------------------------------------------|
A|--------------------------0--3h4--------------------------------------------|
E|----------------------------------------------------------------------------|
  These 3h4 can be played with a 3b, 3h4, or 3/, just start on the C note and bring the pitch up.
  Also on the hold he messes around picking the 2 on the G string, listen for what I'm talking about.
 
e|--2/4--2--2-0--------------------------------------------------------------|
B|---------------------------------------------------------------------------|
G|--2/4--2--2-1-----2--------------------------------------------------------|
D|------------------2--------------------------------------------------------|
A|--------------3h4----------------------------------------------------------|
E|---------------------------------------------------------------------------|
  This x2 as well
 
 
[Verse 1]
  x2
e|---------------------------------------------------------------------------|
B|---------------------------------------------------------------------------|
G|--------------------------------------7---7--------------------------------|
D|--9---11--9-11-9---------------------5---4---2-0----2~---------------------|
A|--7-x-7-x-7-7--7-x-7---7---7-9-7----0---0----------------------------------|
E|-------------------5-x-5-x-5-5-5-x---------------3b------------------------|
 
e|--2/4--2--2-0--------------------------------------------------------------|
B|---------------------------------------------------------------------------|
G|--2/4--2--2-1-----2--------------------------------------------------------|
D|------------------2--------------------------------------------------------|
A|--------------3h4----------------------------------------------------------|
E|---------------------------------------------------------------------------|
 
 
[Verse 2]
  x2
e|---------------------------------------------------------------------------|
B|---------------------------------------------------------------------------|
G|--------------------------------------7---7--------------------------------|
D|--9---11--9-11-9---------------------5---4---2-0----2~---------------------|
A|--7-x-7-x-7-7--7-x-7---7---7-9-7----0---0----------------------------------|
E|-------------------5-x-5-x-5-5-5-x---------------3b------------------------|
 
e|--2/4--2--2-0--------------------------------------------------------------|
B|---------------------------------------------------------------------------|
G|--2/4--2--2-1-----2--------------------------------------------------------|
D|------------------2--------------------------------------------------------|
A|--------------3h4----------------------------------------------------------|
E|---------------------------------------------------------------------------|
 
 
[Chorus]
 
e|---------------------------------------------------------------------------|
B|---------------------------------------------------------------------------|
G|--------------------2---4---2-4-2----4---6---4-6-4----4-6---4-6-4----------|
D|--2---4----2-4-4----2---4---2-4-2----4---6---4-6-4----4-6---4-6-4----------|
A|--2---4----2-4-2------0---0-------0----2---2-------2------2-------2--------|
E|----0----0-------0---------------------------------------------------------|
 
e|---------------------------------------------------------------------------|
B|---------------------------------------------------------------------------|
G|--------------------2---4---2-4-2------7---7-------------------------------|
D|--2---4----2-4-4----2---4---2-4-2-----5---4--2-0---------------------------|
A|--2---4----2-4-2------0---0-------0--0---0---------------------------------|
E|----0----0-------0-------------------------------3b-0----------------------|
 
 
[Bridge]
  Repeat this rhythm under the solo, which sounds like Em pentatonic
e|---------------------------------------------------------------------------|
B|---------------------------------------------------------------------------|
G|---------------------------------------------------------------------------|
D|-------------------2-------------------------------------------------------|
A|---------2--0--3h4---------------------------------------------------------|
E|--0--3h4-------------------------------------------------------------------|
 
  Then play this x2
e|--2/4--2--2-0--------------------------------------------------------------|
B|---------------------------------------------------------------------------|
G|--2/4--2--2-1-----2--------------------------------------------------------|
D|------------------2--------------------------------------------------------|
A|--------------3h4----------------------------------------------------------|
E|---------------------------------------------------------------------------|
 
 
[Verse 3]
  x2
e|---------------------------------------------------------------------------|
B|---------------------------------------------------------------------------|
G|--------------------------------------7---7--------------------------------|
D|--9---11--9-11-9---------------------5---4---2-0----2~---------------------|
A|--7-x-7-x-7-7--7-x-7---7---7-9-7----0---0----------------------------------|
E|-------------------5-x-5-x-5-5-5-x---------------3b------------------------|
 
e|--2/4--2--2-0--------------------------------------------------------------|
B|---------------------------------------------------------------------------|
G|--2/4--2--2-1-----2--------------------------------------------------------|
D|------------------2--------------------------------------------------------|
A|--------------3h4----------------------------------------------------------|
E|---------------------------------------------------------------------------|
 
 
[Chorus]
 
e|---------------------------------------------------------------------------|
B|---------------------------------------------------------------------------|
G|--------------------2---4---2-4-2----4---6---4-6-4----4-6---4-6-4----------|
D|--2---4----2-4-4----2---4---2-4-2----4---6---4-6-4----4-6---4-6-4----------|
A|--2---4----2-4-2------0---0-------0----2---2-------2------2-------2--------|
E|----0----0-------0---------------------------------------------------------|
 
e|---------------------------------------------------------------------------|
B|---------------------------------------------------------------------------|
G|--------------------2---4---2-4-2------7---7-------------------------------|
D|--2---4----2-4-4----2---4---2-4-2-----5---4--2-0---------------------------|
A|--2---4----2-4-2------0---0-------0--0---0---------------------------------|
E|----0----0-------0-------------------------------3b-0----------------------|
 
 
[Outro]
   x3
e|--2/4--2--2-0--------------------------------------------------------------|
B|---------------------------------------------------------------------------|
G|--2/4--2--2-1-----2--------------------------------------------------------|
D|------------------2--------------------------------------------------------|
A|--------------3h4----------------------------------------------------------|
E|---------------------------------------------------------------------------|
 
                         hold both of the notes here
e|--2/4--2--2-0--------------------------------------------------------------|
B|---------------------------------------------------------------------------|
G|--2/4--2--2-1-----2-------9\7----------------------------------------------|
D|------------------2--------------------------------------------------------|
A|--------------3h4------/9--------------------------------------------------|
E|---------------------------------------------------------------------------|
            
Submit corrections

↑ Back to top | Tablatures and chords for acoustic guitar and electric guitar, ukulele, drums are parodies/interpretations of the original songs. You may use it for private study, scholarship, research or language learning purposes only