Home » Z » Zebrahead »

Zebrahead - Everything Falls Apart Tabs

Artists:  A B C D E F G H I J K L M N O P Q R S T U V W X Y Z # 

Everything Falls Apart Tabs

(ver. 1) Click to play this song!
Zebrahead
 Rating:
4/5 (4 votes)
                **Note from Hoffie-I prefer to play full Barre chords in verse and chorus, but that¹s just me

This Is Based On The Second Live Version Off Zebrahead.org
-|----------------------------------|----------------------------------|--------
-|----------------------------------|----------------------------------|--------
-|----------------------------------|----------------------------------|--------
-|----------------------------------|----------------------------------|--------
-|----5-6-5-8-5-6-5---5-6-5---5---5-|----5-6-5-8-5-6-5---5-6-5---5---5-|--------
-|--3---------------6-------6---5---|--3---------------6-------6---5---|--------
³Riff² W/ Light Flanger (notes are double picked, but sound OK single picked)

Verse Guitar
-|--------------------------|--------------------------|
-|--------------------------|--------------------------|
-|-------88-77------1010-88-|-------88-77------1010-88-|
-|--55---88-77-88---1010-88-|--55---88-77-88---1010-88-|
-|--55---66-55-88---8-8--66-|--55---66-55-88---8-8--66-|
-|--33---------66-----------|--33---------66-----------|

Chorus Guitar w/ riff
-|--------------------------|--------------------------|
-|--------------------------|--------------------------|
-|-------88-77------1010-88-|-------88-77------1010-88-|
-|--5555-88-77-8888-1010-88-|--5555-88-77-8888-1010-88-|
-|--5555-66-55-8888-8-8--66-|--5555-66-55-8888-8-8--66-|
-|--3333-------6666---------|--3333-------6666---------|

-|------------------------------------------|
-|------------------------------17-17-15-14-|
-|-17-18-17--17-18-17--17-18-17-------------|
-|------------------------------------------|
-|------------------------------------------|
-|------------------------------------------|
G2

Guitar Solo
Improvise, Cuz They Change It All The Time...

-|----------------------------|----------------------------|--------
-|----------------------------|----------------------------|--------
-|-16h18-18-18-16-18-16-15-13-|-16h18-18-18-16-18-16-15-13-|-------
-|----------------------------|----------------------------|--------
-|----------------------------|----------------------------|--------
-|----------------------------|----------------------------|--------
G1 W/Wah


-|----------------------------|----------------------------|--------
-|----------------------------|----------------------------|--------
-|-16h18-18-18-16-18-16-15-13-|-16h18-18-18-16-18-16-15-13-|--------
-|----------------------------|----------------------------|--------
-|----------------------------|----------------------------|--------
-|----------------------------|----------------------------|--------
G1
            
Submit corrections

↑ Back to top | Tablatures and chords for acoustic guitar and electric guitar, ukulele, drums are parodies/interpretations of the original songs. You may use it for private study, scholarship, research or language learning purposes only