» » »

Zac Brown Band - All The Best Tabs

Artists:  A B C D E F G H I J K L M N O P Q R S T U V W X Y Z # 

All The Best Tabs

(ver. 1) Click to play this song!
Zac Brown Band
 Rating:
4.3/5 (21 vote)

 All The Best  lessons Tabs too difficult? Try these video lessons and learn fast
 
                    G                                 
e|---------------------------------|
B|---------------------------------|
G|-------0------0------0------0----|
D|-----0------0------0------0------|
A|---------------------------------|
E|--3------3------3------3------3--|

and this:
    C         G                         
e|------3--------|
B|------1-----0--|
G|--0-------0----|
D|--------2------|
A|----3----------|
E|------------3--|

and then mix them like this:

[Intro]
    C         G                 C         G                 
e|------3---------------------------3-----3------------------|
B|------1-----0---------------------1------------------------|
G|--0-------0------0------0-----0-------0------0------0------|
D|--------2------0------0-----0-------2------0------0------0-|
A|----3---------------------------3--------------------------|
E|------------3------3------3-------------3------3------3----|

    C         G                           G
e|------3-------------------------------------------------|
B|------1-----0-------0-------------0---------------------|
G|--0-------0-----0-------0-2---2-------2-0----0------0---|
D|--------2-----0-------0-----0-------0------0------0-----|
A|----3---------------------------------------------------|
E|------------3-----3-------2-----2-------3------3------3-|            
Submit corrections


        All The Best  lessons Hard to play? Try these video lessons and learn fast All The Best  lessons
        
↑ Back to top | Tablatures and chords for acoustic guitar and electric guitar, ukulele, drums are parodies/interpretations of the original songs. You may use it for private study, scholarship, research or language learning purposes only