Home » Y » Yo La Tengo »

Yo La Tengo - Awhileaway Tabs

Artists:  A B C D E F G H I J K L M N O P Q R S T U V W X Y Z # 

Awhileaway Tabs

(ver. 1) Click to play this song!
Yo La Tengo
 Rating:
4.3/5 (25 votes)
                [Intro]
 
e|---------------------------------------------------------------------------|
B|--------2---0-------0-----------2---0-------0------------------------------|
G|----2-----------2-----2-----2-----------2-----2----------------------------|
D|--0---0-------0---0-------0---0-------0---0--------------------------------|
A|------------------------0-----------------------0--------------------------|
E|---------------------------------------------------------------------------|
 
e|---------------------------------------------------------------------------|
B|--------2---0-------0-----------2---0-------0------------------------------|
G|----2-----------2-----2-----2-----------2-----2----------------------------|
D|--0---0-------0---0-------0---0-------0---0--------------------------------|
A|------------------------0-----------------------0--------------------------|
E|---------------------------------------------------------------------------|
 
 
 
[Verse 1]
 
"How do you turn from fear..."
e|--------2-----------2-----------2-----------2------------------------------|
B|------0---0-------2---2-------5-----5---5-----5----------------------------|
G|----2-------0---2-------2---2-----2-------2-----2--------------------------|
D|--0-----------0-----------0-----------0------------------------------------|
A|---------------------------------------------------------------------------|
E|---------------------------------------------------------------------------|
 
"How do you make dark thoughts disappear..."
e|--------0-----------2-----------2-----------0------------------------------|
B|------0---0-------2---2-------2---2-------2---2----------------------------|
G|----0-------0---2-------0---0-------0---2-------2--------------------------|
D|--0-----------4-----------4-----------2------------------------------------|
A|---------------------------------------------------------------------------|
E|---------------------------------------------------------------------------|
 
"When nowhere to go feels right..."
e|--------2-----------2-----------2-----------2------------------------------|
B|------0---0-------2---2-------5-----5---5-----5----------------------------|
G|----2-------0---2-------2---2-----2-------2-----2--------------------------|
D|--0-----------0-----------0-----------0------------------------------------|
A|---------------------------------------------------------------------------|
E|---------------------------------------------------------------------------|
 
"Maybe I can hide from the night..."
e|--------0-----------2-----------2-----------0------------------------------|
B|------0---0-------2---2-------2---2-------2---2----------------------------|
G|----0-------0---2-------0---0-------0---2-------2--------------------------|
D|--0-----------4-----------4-----------2------------------------------------|
A|---------------------------------------------------------------------------|
E|---------------------------------------------------------------------------|
 
"Maybe I'll just turn on the light..."
e|--------0-----------2-----------2-----------0------------------------------|
B|------0---0-------2---2-------2---2-------2---2----------------------------|
G|----0-------0---2-------0---0-------0---2-------2--------------------------|
D|--0-----------4-----------4-----------2------------------------------------|
A|---------------------------------------------------------------------------|
E|---------------------------------------------------------------------------|
 
 
[Chorus]
 
"So it's you and me..."
e|---------------------------------------------------------------------------|
B|------2--2-----2-------3--3-----3------------------------------------------|
G|------2--2-----2-------4--4-----4------------------------------------------|
D|--0----------0-------------------------------------------------------------|
A|------------------0-2---------2----0---------------------------------------|
E|---------------------------------------------------------------------------|
 
"Hard times pass peacefully..."
e|---------------------------------------------------------------------------|
B|--------------------------------------------2------------------------------|
G|--------0-----------0-----------3---------2---2----------------------------|
D|------0---0-------2---2-------5---5-----2----------------------------------|
A|----2-------0---2-------0---5-------5-0------------------------------------|
E|--3-----------0-----------3------------------------------------------------|
 
"Is that true? We'll see..."
e|---------------------------------------------------------------------------|
B|------2--2-----2-------3--3-----3------------------------------------------|
G|------2--2-----2-------4--4-----4------------------------------------------|
D|--0----------0---------0--0------------------------------------------------|
A|------------------0-2---------2----0---------------------------------------|
E|---------------------------------------------------------------------------|
 
"Maybe once or twice in awhileaway"
e|---------------------------------------------------------------------------|
B|---------------------------------------------------------------------------|
G|--------0-----------0-----------4-----------3------------------------------|
D|------0---0-------2---2-------5---5-------5---5----------------------------|
A|----2-------0---2-------0---5-------5---5-------5--------------------------|
E|--3-----------0-----------3-----------3------------------------------------|
 
 
[Bridge]
 
e|---------------------------------------------------------------------------|
B|--------2---0-------0-----------2---0-------0------------------------------|
G|----2-----------2-----2-----2-----------2-----2----------------------------|
D|--0---0-------0---0-------0---0-------0---0--------------------------------|
A|------------------------0-----------------------0--------------------------|
E|---------------------------------------------------------------------------|
 
e|---------------------------------------------------------------------------|
B|--------2---0-------0-----------2---0-------0------------------------------|
G|----2-----------2-----2-----2-----------2-----2----------------------------|
D|--0---0-------0---0-------0---0-------0---0--------------------------------|
A|------------------------0-----------------------0--------------------------|
E|---------------------------------------------------------------------------|
 
[Verse 2]
 
"My heart skips every time..."
e|--------2-----------2-----------------------2------------------------------|
B|------0---0-------2---2-------5-----5p3-5-----5----------------------------|
G|----2-------0---2-------2---2---2---------2-----2--------------------------|
D|--0-----------0-----------0-------0----------------------------------------|
A|---------------------------------------------------------------------------|
E|---------------------------------------------------------------------------|
 
"Your sleepy grin, your still closed eyes..."
e|--------0-----------2-----------2-----------0------------------------------|
B|------0---0-------2---2-------2---2-------2---2----------------------------|
G|----0-------0---2-------0---0-------0---2-------2--------------------------|
D|--0-----------4-----------4-----------2------------------------------------|
A|---------------------------------------------------------------------------|
E|---------------------------------------------------------------------------|
 
"I don't need anyone..."
e|--------2-----------2-----------2-----------2------------------------------|
B|------0---0-------2---2-------5-----5---5-----5----------------------------|
G|----2-------0---2-------2---2-----2-------2-----2--------------------------|
D|--0-----------0-----------0-----------0------------------------------------|
A|---------------------------------------------------------------------------|
E|---------------------------------------------------------------------------|
 
"I'm sure I've said all that before.."
e|--------0-----------2-----------2-----------0------------------------------|
B|------0---0-------2---2-------2---2-------2---2----------------------------|
G|----0-------0---2-------0---0-------0---2-------2--------------------------|
D|--0-----------4-----------4-----------2------------------------------------|
A|---------------------------------------------------------------------------|
E|---------------------------------------------------------------------------|
 
"Please don't laugh when I say it some more.."
e|--------0-----------2-----------2-----------0------------------------------|
B|------0---0-------2---2-------2---2-------2---2----------------------------|
G|----0-------0---2-------0---0-------0---2-------2--------------------------|
D|--0-----------4-----------4-----------2------------------------------------|
A|---------------------------------------------------------------------------|
E|---------------------------------------------------------------------------|
 
 
 
[Chorus]
 
"With you and me..."
e|---------------------------------------------------------------------------|
B|------2--2-----2-------3--3-----3------------------------------------------|
G|------2--2-----2-------4--4-----4------------------------------------------|
D|--0----------0----0----------------0---------------------------------------|
A|--------------------2---------2--------------------------------------------|
E|---------------------------------------------------------------------------|
 
"We don't even have to agree..."
e|---------------------------------------------------------------------------|
B|--------------------------------------------2------------------------------|
G|--------4-----------0-----------3---------2---2----------------------------|
D|------5---5-------2---2-------5---5-----2-------2--------------------------|
A|----5-------5---2-------0---5-------5-0------------------------------------|
E|--3-----------0-----------3------------------------------------------------|
 
"Is that true? We'll see..."
e|---------------------------------------------------------------------------|
B|------2--2-----2-------3--3-----3------------------------------------------|
G|------2--2-----2-------4--4-----4------------------------------------------|
D|--0----------0---------0--0------------------------------------------------|
A|------------------0-2---------2----0---------------------------------------|
E|---------------------------------------------------------------------------|
 
"Maybe once or twice in awhileaway"
e|---------------------------------------------------------------------------|
B|---------------------------------------------------------------------------|
G|--------0-----------0-----------4-----------3------------------------------|
D|------0---0-------2---2-------5---5-------5---5----------------------------|
A|----2-------0---2-------0---5-------5---5-------5--------------------------|
E|--3-----------0-----------3-----------3------------------------------------|
 
 
 
[Bridge]
 
e|---------------------------------------------------------------------------|
B|--------2---0-------0-----------2---0-------0------------------------------|
G|----2-----------2-----2-----2-----------2-----2----------------------------|
D|--0---0-------0---0-------0---0-------0---0--------------------------------|
A|------------------------0-----------------------0--------------------------|
E|---------------------------------------------------------------------------|
 
e|---------------------------------------------------------------------------|
B|--------2---0-------0-----------2---0-------0------------------------------|
G|----2-----------2-----2-----2-----------2-----2----------------------------|
D|--0---0-------0---0-------0---0-------0---0--------------------------------|
A|------------------------0-----------------------0--------------------------|
E|---------------------------------------------------------------------------|
 
"Things get better sometimes, but whether or not..."
e|-------------------------2--2----2--------2--------2-----------------------|
B|-------3--3-----3--------0--0----0----0---2----0---2---2-------------------|
G|-------4--4-----4----------------0----2---2----2---2-----------------------|
D|-----4--------------0--0-------0------0---0----0---0-----------------------|
A|--2-----------2-------------------------------------------0----------------|
E|---------------------------------------------------------------------------|
 
"It takes forever, it's inside..."
e|---------------------------------------------------------------------------|
B|------3--3----3------------------------------------------------------------|
G|------4--4----4------1--1--------------0-----------2-----------------------|
D|---------------------2--2------------0---0-------4-------------------------|
A|--2---------2--------2--2------0---2-------0---4-------0-------------------|
E|-----------------0---------0h2---3-----------2-------2---------------------|
 
"If we're together"
e|---------------------------------------------------------------------------|
B|---------------------------------------------------------------------------|
G|------------------------2--------------------------------------------------|
D|------0-----0-----0---2----------------------------------------------------|
A|----2-----0-----2---0------------------------------------------------------|
E|--3-----2-----3------------------------------------------------------------|
 
 
[Verse 3]
 
e|--------2-----------2-----------2-----------2------------------------------|
B|------0---0-------2---2-------5-----5---5-----5----------------------------|
G|----2-------0---2-------2---2-----2-------2-----2--------------------------|
D|--0-----------0-----------0-----------0------------------------------------|
A|---------------------------------------------------------------------------|
E|---------------------------------------------------------------------------|
 
e|--------0-----------2-----------2-----------0------------------------------|
B|------0---0-------2---2-------2---2-------2---2----------------------------|
G|----0-------0---2-------0---0-------0---2-------2--------------------------|
D|--0-----------4-----------4-----------2------------------------------------|
A|---------------------------------------------------------------------------|
E|---------------------------------------------------------------------------|
 
e|--------2-----------2-----------2-----------2------------------------------|
B|------0---0-------2---2-------5-----5---5-----5----------------------------|
G|----2-------0---2-------2---2-----2-------2-----2--------------------------|
D|--0-----------0-----------0-----------0------------------------------------|
A|---------------------------------------------------------------------------|
E|---------------------------------------------------------------------------|
 
e|--------0-----------2-----------2-----------0------------------------------|
B|------0---0-------2---2-------2---2-------2---2----------------------------|
G|----0-------0---2-------0---0-------0---2-------2--------------------------|
D|--0-----------4-----------4-----------2------------------------------------|
A|---------------------------------------------------------------------------|
E|---------------------------------------------------------------------------|
 
"Please don't laugh when I say it some more..."
e|--------0-----------2-----------2-----------0------------------------------|
B|------0---0-------2---2-------2---2-------2---2----------------------------|
G|----0-------0---2-------0---0-------0---2-------2--------------------------|
D|--0-----------4-----------4-----------2------------------------------------|
A|---------------------------------------------------------------------------|
E|---------------------------------------------------------------------------|
 
 
 
[Chorus]
 
 
"With you and me..."
e|---------------------------------------------------------------------------|
B|------2--2-----2-------3--3-----3------------------------------------------|
G|------2--2-----2-------4--4-----4------------------------------------------|
D|--0----------0-------------------------------------------------------------|
A|------------------0-2---------2----0---------------------------------------|
E|---------------------------------------------------------------------------|
 
"Hard times pass peacefully..."
e|---------------------------------------------------------------------------|
B|--------------------------------------------2------------------------------|
G|--------0-----------0-----------3---------2---2----------------------------|
D|------0---0-------2---2-------5---5-----2----------------------------------|
A|----2-------0---2-------0---5-------5-0------------------------------------|
E|--3-----------0-----------3------------------------------------------------|
 
"Is that true? We'll see..."
e|---------------------------------------------------------------------------|
B|------2--2-----2-------3--3-----3------------------------------------------|
G|------2--2-----2-------4--4-----4------------------------------------------|
D|--0----------0---------0--0------------------------------------------------|
A|------------------0-2---------2----0---------------------------------------|
E|---------------------------------------------------------------------------|
 
"Maybe I'll believe what you say, or..."
e|---------------------------------------------------------------------------|
B|--------------------------------------------2------------------------------|
G|--------0-----------0-----------3---------2---2----------------------------|
D|------0---0-------2---2-------5---5-----2-------2--------------------------|
A|----2-------0---2-------0---5-------0-0------------------------------------|
E|--3-----------0-----------3------------------------------------------------|
 
"Maybe I can quiet my brain..."
e|---------------------------------------------------------------------------|
B|--------------------------------------------2------------------------------|
G|--------0-----------0-----------3---------2---2----------------------------|
D|------0---0-------2---2-------5---5-----2-------2--------------------------|
A|----2-------0---2-------0---5-------0-0------------------------------------|
E|--3-----------0-----------3------------------------------------------------|
 
"Maybe once or twice in awhileaway"
e|---------------------------------------------------------------------------|
B|---------------------------------------------------------------------------|
G|--------0-----------0-----------4-----------3------------------------------|
D|------0---0-------2---2-------5---5-------5---5----------------------------|
A|----2-------0---2-------0---5-------5---5-------5--------------------------|
E|--3-----------0-----------3-----------3------------------------------------|
 
 
 
[Outro]
 
e|---------------------------------------------------------------------------|
B|--------2---0-------0-----------2---0-------0------------------------------|
G|----2-----------2-----2-----2-----------2-----2----------------------------|
D|--0---0-------0---0-------0---0-------0---0--------------------------------|
A|------------------------0-----------------------0--------------------------|
E|---------------------------------------------------------------------------|
 
e|--------------------------2------------------------------------------------|
B|--------2---0-------0-----0------------------------------------------------|
G|----2-----------2-----2---2------------------------------------------------|
D|--0---0-------0---0-------0------------------------------------------------|
A|------------------------0--------------------------------------------------|
E|---------------------------------------------------------------------------|
            
Submit corrections

↑ Back to top | Tablatures and chords for acoustic guitar and electric guitar, ukulele, drums are parodies/interpretations of the original songs. You may use it for private study, scholarship, research or language learning purposes only