» » »

Yngwie Malmsteen - No Love Lost Bass

Artists:  A B C D E F G H I J K L M N O P Q R S T U V W X Y Z # 

No Love Lost Bass

(ver. 1) Click to play this song!
Yngwie Malmsteen
 Rating:
4/5 (4 votes)


 No Love Lost lessons Tabs too difficult? Try these video lessons and learn fast
 
                
NO LOVE LOST (Bassline)
As recorded by Yngwie Malmsteen
(From the 1995 Album MAGNUM OPUS)





Gtr I (E A D G) - 'Untitled'

   4/4
    Gtr I
    S S S S S S S S S S S S S S S S  8x
||-----------------------------------||-|
||o---------------------------------o||-|
||o---------------------------------o||-|
||--3-0-0-0-0-0-3-0-0-0-0-0-3-0-5-0--||-|


    S S S S S S S S S S S S S S S S   S S S S S S S S S S S S S S S S
||----------------------------------|----------------------------------|
||o---------------------------------|----------------------------------|
||o---------------------------------|----------------------------------|
||--0-2-2-2-2-2-0-2-2-2-2-2-2-2-2-2-|-0-2-2-2-2-2-0-2-2-2-2-2-2-2-2-2--|


  S S S S S S S S S S S S S S S S
|---------------------------------|
|---------------------------------|
|---------------------------------|
|-0-2-2-2-2-2-0-2-2-2-2-2-2-2-2-2-|


  S S S S S S S S S S S S S S S S    S S S S S S S S S S S S S S S S
|---------------------------------||---------------------------------|
|---------------------------------||---------------------------------|
|---------------------------------||---------------------------------|
|-0-2-2-2-2-2-0-2-2-2-2-2-2-2-2-2-||-3-5-5-5-5-5-3-5-5-5-5-5-5-5-5-5-|


  S S S S S S S S S S S S S S S S
|---------------------------------|
|---------------------------------|
|---------------------------------|
|-3-5-5-5-5-5-3-5-5-5-5-5-5-5-5-5-|


  S S S S S S S S S S S S S S S S   S S S S S S S S E E E S S
|---------------------------------|---------------------------||
|---------------------------------|-------------------7-5-----||
|---------------------------------|-----------------7-----7-5-||
|-3-5-5-5-5-5-3-5-5-5-5-5-5-5-5-5-|-3-5-5-5-5-5-5-5-----------||


  E E E E E E E E   E E E E E E E E   E E E E E E E E   E E E E S S E S S E
|-----------------|-----------------|-----------------|---------------------|
|-----------------|-----------------|-----------------|---------------------|
|-7---------------|-----------------|-----------------|---------5-5---9-9-7-|
|---0-0-0-0-0-0-0-|-0-0-0-0-0-0-0-0-|-0-0-0-0-0-0-0-0-|-0-0-0-0-----7-------|


                                                        1.
  E E E E E E E E   E E E E E E E E   E E E E E E E E   E E E E S S E S S E
|-----------------|-----------------|-----------------|---------------------||
|-----------------|-----------------|-----------------|---------------------||
|-7---------------|-----------------|-----------------|---------5-5---9-9-7-||
|---0-0-0-0-0-0-0-|-0-0-0-0-0-0-0-0-|-0-0-0-0-0-0-0-0-|-0-0-0-0-----7-------||


  S S S S S S S S S S S S S S S S
|---------------------------------|
|---------------------------------|
|---------------------------------|
|-3-0-0-0-0-0-3-0-0-0-0-0-3-0-5-0-|


  S S S S S S S S S S S S S S S S   S S S S S S S S S S S S S S S S
|---------------------------------|---------------------------------|
|---------------------------------|---------------------------------|
|---------------------------------|---------------------------------|
|-3-0-0-0-0-0-3-0-0-0-0-0-3-0-5-0-|-3-0-0-0-0-0-3-0-0-0-0-0-3-0-5-0-|


                                      2.
  S S S S S S S S S S S S S S S S     E E E E E E E E    Wx8
|----------------------------------||-----------------||--------||
|---------------------------------o||-----------------||--------||
|---------------------------------o||-----------------||--------||
|-3-0-0-0-0-0-3-0-0-0-0-0-3-0-5-0--||-0-0-0-0-0-0-0-0-||--------||


  S E. +E  S S +E  E E E   S E. +E  S S +E  E E E
|------------------------|------------------------|
|------------------------|------------------------|
|------------------------|------------------------|
|-2-2--(2)-2-2-(2)-2-2-2-|-2-2--(2)-2-2-(2)-2-2-2-|


  S E. +E  S S +E  E E E   S E. +E  S S +E  E E E
|------------------------|------------------------|
|------------------------|------------------------|
|------------------------|------------------------|
|-2-2--(2)-2-2-(2)-2-2-2-|-2-2--(2)-2-2-(2)-2-2-2-|


  S E. +E  S S +E  E E E   S E. +E  S S +E  E E E
|------------------------|------------------------|
|------------------------|------------------------|
|------------------------|------------------------|
|-2-2--(2)-2-2-(2)-2-2-2-|-2-2--(2)-2-2-(2)-2-2-2-|


  S E. +E  S S +E  E E E   S E. +E  S S +E  E E E
|------------------------|------------------------||
|------------------------|------------------------||
|------------------------|------------------------||
|-2-2--(2)-2-2-(2)-2-2-2-|-2-2--(2)-2-2-(2)-2-2-2-||


  S S S S S S S S S S S S S S S S   S S S S S S S S S S E S S S S
|---------------------------------|-------------------------------|
|---------------------------------|---------------------2-0-------|
|-2-2-2-2-2-2-2-2-2-2-2-2-2-2-2-2-|-2-2-2-2-2-2-2-2-2-2-----3-2-0-|
|---------------------------------|-------------------------------|


  S S S S S S S S S S S S S S S S
|----------------------------------|
|----------------------------------|
|-2-2-2-2-2-2-2-2-2-2-2-2-2-2-2-2--|
|----------------------------------|


  S S S S S S S S S S S S S S S S
|---------------------------------||
|-------------2-4-2-0-2-0-2-0-----||
|-2-2-2-2-2-2-----------------4-2-||
|---------------------------------||


  S S S S S S S S S S S S S S S S   S S S S S S S S S S S S S S S S
|---------------------------------|---------------------------------|
|---------------------------------|---------------------------------|
|-4-4-4-4-4-4-4-4-4-4-4-4-4-4-4-4-|-4-4-4-4-4-4-4-4-4-4-4-4-4-4-4-4-|
|---------------------------------|---------------------------------|


  S S S S S S S S S S S S S S S S
|---------------------------------|
|---------------------------------|
|-4-4-4-4-4-4-4-4-4-4-4-4-4-4-4-4-|
|---------------------------------|


  S S S S S S S S S S S S S S S S    S S S S S S S S S S S S S S S S
|---------------------------------||---------------------------------|
|---------------------------------||-0-0-0-0-0-0-0-0-0-0-0-0-0-0-0-0-|
|-4-4-4-4-4-4-4-4-4-4-4-4-4-4-4-4-||---------------------------------|
|---------------------------------||---------------------------------|


  S S S S S S S S S S S S S S S S   S S S S S S S S S S S S S S S S   W
|---------------------------------|---------------------------------|------||
|-0-0-0-0-0-0-0-0-0-0-0-0-0-0-0-0-|-0-0-0-0-0-0-0-0-0-0-0-0-0-0-0-0-|-0----||
|---------------------------------|---------------------------------|------||
|---------------------------------|---------------------------------|------||


  E E E E E E E E   E E E E E E E E   E E E E E E E E   E E E E E E E E
|-----------------|-----------------|-----------------|-----------------|
|-----------------|-----------------|-----------------|-----------------|
|-----------------|-----------------|-----------------|---------------2-|
|-0-0-0-0-0-0-0-0-|-0-0-0-0-0-0-0-0-|-0-0-0-0-0-0-0-0-|-0-0-0-0-0-0-0---|


  E E E E E E E E   E E E E E E E E   E E E E E E E E   E E E E E E S S S S
|-----------------|-----------------|-----------------|-----------2---0-----|
|-----------------|-----------------|-----------------|---------2-------2-0-|
|-----------------|-----------------|-----------------|---------------------|
|-0-0-0-0-0-0-0-0-|-0-0-0-0-0-0-0-0-|-0-0-0-0-0-0-0-0-|-0-0-0-0-------------|


  E E E E E E E E   E E E E E E E E   E E E E E E E E   E E E E E E E E
|-----------------|-----------------|-----------------|-----------------|
|-2---------------|-----------------|-----------------|-----------------|
|-----------------|-----------------|-----------------|-----------------|
|---0-0-0-0-0-0-0-|-0-0-0-0-0-0-0-0-|-0-0-0-0-0-0-0-0-|-0-0-0-0-0-0-0-0-|


  E E E E S S E E E   E E E E E E E E   E E E E E E E E   E E E E H
|-------------------|-----------------|-----------------|--------------||
|-------0-2---0---2-|-----------------|-----------------|--------------||
|-------------------|-----------------|-----------------|---------7\---||
|-0-0-0-----0-------|-0-0-0-0-0-0-0-0-|-0-0-0-0-0-0-0-0-|-0-0-0-0------||


  S S S S S S S S S S S S S S S S
|---------------------------------|
|---------------------------------|
|---------------------------------|
|-3-0-0-0-0-0-3-0-0-0-0-0-3-0-5-0-|


  S S S S S S S S S S S S S S S S   S S S S S S S S S S S S S S S S
|---------------------------------|---------------------------------|
|---------------------------------|---------------------------------|
|---------------------------------|---------------------------------|
|-3-0-0-0-0-0-3-0-0-0-0-0-3-0-5-0-|-3-0-0-0-0-0-3-0-0-0-0-0-3-0-5-0-|


  S S S S S S S S S S S S S S S S
|---------------------------------|
|---------------------------------|
|---------------------------------|
|-3-0-0-0-0-0-3-0-0-0-0-0-3-0-5-0-|


  S S S S S S S S S S S S S S S S   S S S S S S S S S S S S S S S S
|---------------------------------|---------------------------------|
|---------------------------------|---------------------------------|
|---------------------------------|---------------------------------|
|-3-0-0-0-0-0-3-0-0-0-0-0-3-0-5-0-|-3-0-0-0-0-0-3-0-0-0-0-0-3-0-5-0-|


  S S S S S S S S S S S S S S S S
|---------------------------------|
|---------------------------------|
|---------------------------------|
|-3-0-0-0-0-0-3-0-0-0-0-0-3-0-5-0-|


  S S S S S S S S S S S S S S S S   S S E Q  H
|---------------------------------|-------------*|
|---------------------------------|-------------*|
|---------------------------------|-------------*|
|-3-0-0-0-0-0-3-0-0-0-0-0-3-0-5-0-|-3-0---------*|



Duration Legend
---------------
W - whole; H - half; Q - quarter; E - 8th; S - 16th; T - 32nd; X - 64th; a - acciaccatura
+ - note tied to previous; . - note dotted; .. - note double dotted
Uncapitalized letters represent notes that are staccato (1/2 duration)
Irregular groupings are notated above the duration line
Duration letters will always appear directly above the note/fret number it represents the
duration for.  Duration letters with no fret number below them represent rests.  Multi-
bar rests are notated in the form Wxn, where n is the number of bars to rest for.  Low
melody durations appear below the staff

Tablature Legend
----------------
 h   - hammer-on
 p   - pull-off
 b   - bend
 pb  - pre-bend
 r   - bend release (if no number after the r, then release immediately)
 /\  - slide into or out of (from/to "nowhere")
 s   - legato slide
 S   - shift slide
 - natural harmonic
[n]  - artificial harmonic
n(n) - tapped harmonic
 ~   - vibrato
 tr  - trill
 T   - tap
 TP  - trem. picking
 PM  - palm muting
\n/  - tremolo bar dip; n = amount to dip
 \n  - tremolo bar down
 n/  - tremolo bar up
/n\  - tremolo bar inverted dip
 =   - hold bend; also acts as connecting device for hammers/pulls
 <> - volume swell (louder/softer)
 x   - on rhythm slash represents muted slash
 o   - on rhythm slash represents single note slash

Misc Legend
-----------
 |  - bar
||  - double bar
||o - repeat start
o|| - repeat end
*|  - double bar (ending)
 :  - bar (freetime)
 $  - Segno
 &  - Coda
Tempo markers -  = BPM(8/16=s8/s16), where s8 = swing 8ths, s16 = swing 16ths
            
Submit corrections



        No Love Lost lessons Hard to play? Try these video lessons and learn fast No Love Lost lessons
        
↑ Back to top | Tablatures and chords for acoustic guitar and electric guitar, ukulele, drums are parodies/interpretations of the original songs. You may use it for private study, scholarship, research or language learning purposes only