» » »

Yngwie Malmsteen - Crying Bass

Artists:  A B C D E F G H I J K L M N O P Q R S T U V W X Y Z # 

Crying Bass

(ver. 1) Click to play this song!
Yngwie Malmsteen
 Rating:
4/5 (4 votes)


 Crying lessons Tabs too difficult? Try these video lessons and learn fast
 
                
CRYING (Bassline)
As recorded by Yngwie Malmsteen
(From the 1986 Album TRILOGY)

	

Music by Yngwie Malmsteen

Gtr I (Eb Ab Db Gb) - 'Untitled'
Gtr II (Eb Ab Db Gb Bb Eb) - 'Untitled'

 Theme 1
  Q=102
 1/4    4/4
  Gtr I
  Q      W          W          W          W     4x
|----||-----------|----------|----------|-------||
|----||o----------|----------|----------|------o||
|----||o----------|----------|----------|------o||
|----||--3--------|-3--------|-3--------|-3-----||


   Theme 2
    Gm   F/A    Bb            Eb    D       Gm
    H    H      H    Q  E E   Q  Q  Q  Q    Q  Q  Q  Q
||------------|-------------|-------------|--------------||
||o-----------|-------------|-------7--4--|-5--0--------o||
||o-----------|---------3-5-|-6--5--------|-------1--0--o||
||--3----5----|-6----6------|-------------|--------------||
|
|   Gtr II
|   H    H      W             H     H       W
||--3----5----|-6-----------|-------------|-3------------||
||o-3----6----|-6-----------|-8-----7-----|-3-----------o||
||--3----5----|-7-----------|-8-----7-----|-3------------||
||--5----7----|-8-----------|-8-----7-----|-5------------||
||o-----------|-------------|-6-----5-----|-------------o||
||------------|-------------|-------------|--------------||


   Theme 3
    Eb                        Bb/D      Cm                        Bb/D
    E Q  E E +Q.      E  Q  E E +Q.     E Q  E E +Q.      E  Q  E E +Q.
||-----------------|------------------|----------------|------------------|
||o----------------|------------------|----------------|------------------|
||o-6-6--6-6-(6)---|--6--6--6-5-(5)---|-3-3--3-3-(3)---|--3--3--5-5-(5)---|
||-----------------|------------------|----------------|------------------|
|
|   W                +H       H         W                +H       H
||-----------------|------------------|-3--------------|-(3)--------------|
||o-8--------------|-(8)------6-------|-4--------------|-(4)------6-------|
||--8--------------|-(8)------7-------|-5--------------|-(5)------7-------|
||--8--------------|-(8)------8-------|-5--------------|-(5)------8-------|
||o-6--------------|-(6)------5-------|-3--------------|-(3)------5-------|
||-----------------|------------------|----------------|------------------|


  Eb               C                F                F#°
  E Q  E E +Q.     E Q  E E +Q.     E Q  E E +Q.     Q   Q  Q  Q
|----------------|----------------|----------------|----------------||
|----------------|----------------|----------------|----10-----7---o||
|-6-6--6-6-(6)---|-7-7--7-7-(7)---|-8-8--8-8-(8)---|-9------6------o||
|----------------|----------------|----------------|----------------||
|
| W                W                W                W
|----------------|-0--------------|-5--------------|-5--------------||
|-8--------------|-1--------------|-6--------------|-4-------------o||
|-8--------------|-0--------------|-5--------------|-5--------------||
|-8--------------|-2--------------|-7--------------|-4--------------||
|-6--------------|-3--------------|-8--------------|---------------o||
|----------------|----------------|----------------|----------------||


   Theme 1 (Variation)
    W          W          W          W
||-----------|----------|----------|-------||
||o----------|----------|----------|------o||
||o----------|----------|----------|------o||
||--3--------|-3--------|-3--------|-3-----||


   Theme 2 (Variation)
    Gm   F/A    Bb            Eb    D       Gm
    H    H      H    Q  E E   Q  Q  Q  Q    Q  Q  Q  Q
||------------|-------------|-------------|--------------||
||o-----------|-------------|-------7--4--|-5--0--------o||
||o-----------|---------3-5-|-6--5--------|-------1--0--o||
||--3----5----|-6----6------|-------------|--------------||
|
|   Gtr II
|   H    H      W             H     H       W
||--3----5----|-6-----------|-------------|-3------------||
||o-3----6----|-6-----------|-8-----7-----|-3-----------o||
||--3----5----|-7-----------|-8-----7-----|-3------------||
||--5----7----|-8-----------|-8-----7-----|-5------------||
||o-----------|-------------|-6-----5-----|-------------o||
||------------|-------------|-------------|--------------||


   Theme 3 (Variation)
    Eb                        Bb/D      Cm                        Bb/D
    E Q  E E +Q.      E  Q  E E +Q.     E Q  E E +Q.      E  Q  E E +Q.
||-----------------|------------------|----------------|------------------|
||o----------------|------------------|----------------|------------------|
||o-6-6--6-6-(6)---|--6--6--6-5-(5)---|-3-3--3-3-(3)---|--3--3--5-5-(5)---|
||-----------------|------------------|----------------|------------------|
|
|   W                +H       H         W                +H       H
||-----------------|------------------|-3--------------|-(3)--------------|
||o-8--------------|-(8)------6-------|-4--------------|-(4)------6-------|
||--8--------------|-(8)------7-------|-5--------------|-(5)------7-------|
||--8--------------|-(8)------8-------|-5--------------|-(5)------8-------|
||o-6--------------|-(6)------5-------|-3--------------|-(3)------5-------|
||-----------------|------------------|----------------|------------------|


  Eb               C                F                F#°
  E Q  E E +Q.     E Q  E E +Q.     E Q  E E +Q.     Q   Q  Q  Q
|----------------|----------------|----------------|----------------||
|----------------|----------------|----------------|----10-----7---o||
|-6-6--6-6-(6)---|-7-7--7-7-(7)---|-8-8--8-8-(8)---|-9------6------o||
|----------------|----------------|----------------|----------------||
|
| W                W                W                W
|----------------|-0--------------|-5--------------|-5--------------||
|-8--------------|-1--------------|-6--------------|-4-------------o||
|-8--------------|-0--------------|-5--------------|-5--------------||
|-8--------------|-2--------------|-7--------------|-4--------------||
|-6--------------|-3--------------|-8--------------|---------------o||
|----------------|----------------|----------------|----------------||


   Theme 1 (Variation)
    W          W          W          W
||-----------|----------|----------|-------||
||o----------|----------|----------|------o||
||o----------|----------|----------|------o||
||--3--------|-3--------|-3--------|-3-----||


   Theme 2 (Variation)
    Gm   F/A    Bb            Eb    D       Gm
    H    H      H    Q  E E   Q  Q  Q  Q    Q  Q  Q  Q   6x
||------------|-------------|-------------|--------------||
||o-----------|-------------|-------7--4--|-5--0--------o||
||o-----------|---------3-5-|-6--5--------|-------1--0--o||
||--3----5----|-6----6------|-------------|--------------||
|
|   Gtr II
|   H    H      W             H     H       W            6x
||--3----5----|-6-----------|-------------|-3------------||
||o-3----6----|-6-----------|-8-----7-----|-3-----------o||
||--3----5----|-7-----------|-8-----7-----|-3------------||
||--5----7----|-8-----------|-8-----7-----|-5------------||
||o-----------|-------------|-6-----5-----|-------------o||
||------------|-------------|-------------|--------------||


   Theme 3 (Variation)
    Eb                        Bb/D      Cm                        Bb/D
    E Q  E E +Q.      E  Q  E E +Q.     E Q  E E +Q.      E  Q  E E +Q.
||-----------------|------------------|----------------|------------------|
||o----------------|------------------|----------------|------------------|
||o-6-6--6-6-(6)---|--6--6--6-5-(5)---|-3-3--3-3-(3)---|--3--3--5-5-(5)---|
||-----------------|------------------|----------------|------------------|
|
|   W                +H       H         W                +H       H
||-----------------|------------------|-3--------------|-(3)--------------|
||o-8--------------|-(8)------6-------|-4--------------|-(4)------6-------|
||--8--------------|-(8)------7-------|-5--------------|-(5)------7-------|
||--8--------------|-(8)------8-------|-5--------------|-(5)------8-------|
||o-6--------------|-(6)------5-------|-3--------------|-(3)------5-------|
||-----------------|------------------|----------------|------------------|


  Eb               C                F                F#°
  E Q  E E +Q.     E Q  E E +Q.     E Q  E E +Q.     Q   Q  Q  Q
|----------------|----------------|----------------|----------------||
|----------------|----------------|----------------|----10-----7---o||
|-6-6--6-6-(6)---|-7-7--7-7-(7)---|-8-8--8-8-(8)---|-9------6------o||
|----------------|----------------|----------------|----------------||
|
| W                W                W                W
|----------------|-0--------------|-5--------------|-5--------------||
|-8--------------|-1--------------|-6--------------|-4-------------o||
|-8--------------|-0--------------|-5--------------|-5--------------||
|-8--------------|-2--------------|-7--------------|-4--------------||
|-6--------------|-3--------------|-8--------------|---------------o||
|----------------|----------------|----------------|----------------||


 Outro
  W          W          W          W          W
|----------|----------|----------|----------|----------|
|----------|----------|----------|----------|----------|
|----------|----------|----------|----------|----------|
|-3--------|-3--------|-3--------|-3--------|-3--------|


  W          W          W          W          W          W
|----------|----------|----------|----------|----------|------*|
|----------|----------|----------|----------|----------|------*|
|----------|----------|----------|----------|----------|------*|
|-3--------|-3--------|-3--------|-3--------|-3--------|-3----*|



Duration Legend
---------------
W - whole; H - half; Q - quarter; E - 8th; S - 16th; T - 32nd; X - 64th; a - acciaccatura
+ - note tied to previous; . - note dotted; .. - note double dotted
Uncapitalized letters represent notes that are staccato (1/2 duration)
Irregular groupings are notated above the duration line
Duration letters will always appear directly above the note/fret number it represents the
duration for.  Duration letters with no fret number below them represent rests.  Multi-
bar rests are notated in the form Wxn, where n is the number of bars to rest for.  Low
melody durations appear below the staff

Tablature Legend
----------------
 h   - hammer-on
 p   - pull-off
 b   - bend
 pb  - pre-bend
 r   - bend release (if no number after the r, then release immediately)
 /\  - slide into or out of (from/to "nowhere")
 s   - legato slide
 S   - shift slide
 - natural harmonic
[n]  - artificial harmonic
n(n) - tapped harmonic
 ~   - vibrato
 tr  - trill
 T   - tap
 TP  - trem. picking
 PM  - palm muting
\n/  - tremolo bar dip; n = amount to dip
 \n  - tremolo bar down
 n/  - tremolo bar up
/n\  - tremolo bar inverted dip
 =   - hold bend; also acts as connecting device for hammers/pulls
 <> - volume swell (louder/softer)
 x   - on rhythm slash represents muted slash
 o   - on rhythm slash represents single note slash

Misc Legend
-----------
 |  - bar
||  - double bar
||o - repeat start
o|| - repeat end
*|  - double bar (ending)
 :  - bar (freetime)
 $  - Segno
 &  - Coda
Tempo markers -  = BPM(8/16=s8/s16), where s8 = swing 8ths, s16 = swing 16ths
            
Submit corrections



        Crying lessons Hard to play? Try these video lessons and learn fast Crying lessons
        
↑ Back to top | Tablatures and chords for acoustic guitar and electric guitar, ukulele, drums are parodies/interpretations of the original songs. You may use it for private study, scholarship, research or language learning purposes only