» » »

Yellowcard - With You Around Bass

Artists:  A B C D E F G H I J K L M N O P Q R S T U V W X Y Z # 

With You Around Bass

(ver. 1) Click to play this song!
Yellowcard
 Rating:
4/5 (4 votes)


 With You Around lessons Tabs too difficult? Try these video lessons and learn fast
 
                Tabs were requested for this song on my bass cover of this song, so yeah. Not that 
difficult of a song, but it has some cool fills. Song is in dropped D tuning.

Watch my bass cover of this song!


Also check out my channel for more songs!


Intro

No bass in intro

Verse 1

G|----------------------------------------------------------------------|
D|----------------------------------------------------------------------|
A|----------------------------------------------------------------------| x2
D|-0-0-0-0-0-0-----0-0-0-0-0-------5-5-5-5-5-5-----5-5-5-5-5------------|

Pre-Chorus 1

G|----------------------------------------------------------------------|
D|----------------------------------------------------------------------|
A|----------------------------------------------------------------------|
D|-9-9-9-9-9-9-----7-7-7-7-7-------5-5-5-5-5-5-----5-5-5-5-5------------|

G|----------------------------------------------------------------------|
D|----------------------------------------------------------------------|
A|-----------------------4-4--------------------------------------------|
D|-9-9-9-9-9-9-----7-7-7-----------5-5-5-5-5-5-----5-5-5-5-5-5-5--------|

Chorus 1

G|----------------------------------------------------------------------|
D|------------------------------------------------------/5---4----------|
A|-2-2-2-2-------------------------2-2-2-2---------------------7-5------|
D|---------5-5-5-0---0-0-0-0-0-0-0---------5-5-5-0--0-0-----------------|

G|----------------------------------------------------------------------|
D|----------------------------------------------------------------------|
A|-2-2-2-2-4-4-4--------------------------------------------------------|
D|---------------0---0-0-0-0-0-0-0-2-2-2-2-2-2-2-2-9-9-9-9-9-9-9-9------|

G|----------------------------------------------------------------------|
D|----------------------------------------------------------------------|
A|----------------------------------------------------------------------|
D|-7-7-7-7-7-7-7-7-7----------------------------------------------------|

Pre-Verse

G|----------------------------------------------------------------------|
D|----------------------------------------------------------------------|
A|----------------------------------------------------------------------|
D|-0-0-0-0-0-0-----0-0-0-0-0-------5-5-5-5-5-5-----5-5-5-5-5------------|

Verse 2

G|----------------------------------------------------------------------|
D|----------------------------------------------------------------------|
A|----------------------------------------------------------------------|
D|-0-0-0-0-0-0-----0-0-0-0-0-------5-5-5-5-5-5-----5-5-5-5-5-2----------|

G|----------------------------------------------------------------------|
D|----------------------------------------------------------------------|
A|------------------------------------------------------/10-10-9-9-9----|
D|-0-0-0-0-0-0-----0-0-0-0-0-------5-5-5-5-5-5-----5-5-5----------------|

Pre-Chorus 2

G|-----------------------------------------------------------------------|
D|-----------------------------------------------------------------------|
A|-----------------------------5-----------------------------------------|
D|-9-9-9-9-9-9-9-9-7-7-7-7-7-7-----5-5-5-5-5-5-5-5-5-5-5-5-5-7-7---------|

G|-----------------------------------------------------------------------|
D|-----------------------------------------------------------------------|
A|-----------------------4-4-5-5------------------/10-10-10-10-10-10-10/-|
D|-9-9-9-9-9-9-9-9-7-7-7-----------5-5-5-5-5-5-5-5-----------------------|

Chorus 2

G|----------------------------------------------------------------------|
D|------------------------------------------------------/5---4----------|
A|-2-2-2-2-------------------------2-2-2-2---------------------7-5------|
D|---------5-5-5-0---0-0-0-0-0-0-0---------5-5-5-0--0-0-----------------|

G|----------------------------------------------------------------------|
D|----------------------------------------------------------------------|
A|-2-2-2-2-4-4-4--------------------------------------------------------|
D|---------------0---0-0-0-0-0-0-0-2-2-2-2-2-2-2-2-9-9-9-9-9-9-9-9------|

G|----------------------------------------------------------------------|
D|----------------------------------------------------------------------|
A|-----------------7-----7-----7-9--------------------------------------|
D|-7-7-7-7-7-7-7-7---7-7---7-7------------------------------------------|

Bridge

G|------------------------------------------------------------------------------|
D|------------------------------------------------------------------------------|
A|-10-10-10-10-10-10-10-12---------------------------------7-----7-----7-9------|
D|-------------------------9-9-9-9-9-9-9-9-7-7-7-7-7-7-7-7---7-7---7-7----------|

G|------------------------------------------------------------------------------|
D|------------------------------------------------------------------------------|
A|-10-10-10-10-10-10-10-12-----------------9-9-9-9-9-9-12-9-10-10-10-10-10-10---|
D|-------------------------9-9-9-9-9-9-9-9----------------------------------12\-|

G|------------------------------------------------------------------------------|
D|------------------------------------------------------------------------------|
A|-------------------------------------------------7-----7-----7----------------|
D|-5-5-5-5-5-5-5-5-9-9-9-9-9-9-9-9-7-7-7-7-7-7-7-7---7-7---7-7---7--------------|

G|------------------------------------------------------------------------------|
D|------------------------------------------------------------------------------|
A|---------------------------------------------------12-12-12-12-12-12-12-------|
D|-5-5-5-5-5-5-5-5-9-9-9-9-9-9-9-9-7-7-7-7-7-7-7-7-7----------------------------|

Chorus 3

G|----------------------------------------------------------------------|
D|------------------------------------------------------/5---4----------|
A|-2-2-2-2-------------------------2-2-2-2---------------------7-5------|
D|---------5-5-5-0---0-0-0-0-0-0-0---------5-5-5-0--0-0-----------------|

G|----------------------------------------------------------------------|
D|----------------------------------------------------------------------|
A|-2-2-2-2-4-4-4-5---5-5-5-5-5-5-5--------------------------------------|
D|----------------------------------------------------------------------|

G|-------------------------------------------------------------7-6------|
D|------------------------------------------------------/7---9----------|
A|-2-2-2-2-------------------------2-2-2-2------------------------------|
D|---------5-5-5-0---0-0-0-0-0-0-0---------5-5-5-0--0-0-----------------|

G|----------------------------------------------------------------------|
D|----------------------------------------------------------------------|
A|-2-2-2-2-4-4-4--------------------------------------------------------|
D|---------------0---0-0-0-0-0-0-0-2-2-2-2-2-2-2-2-9-9-9-9-9-9-9-9------|

G|----------------------------------------------------------------------|
D|----------------------------------------------------------------------|
A|-----------------7-----7-----7-9--------------------------------------|
D|-7-7-7-7-7-7-7-7---7-7---7-7------------------------------------------|

G|----------------------------------------------------------------------|
D|----------------------------------------------------------------------|
A|-10-10-10-10-10-10-10-12----------------------------------------------|
D|-------------------------9-9-9-9-9-9-9-9-7-7-7-7-7-7-7-7-7------------|


| /  slide up
| \  slide down
| h  hammer-on
| p  pull-off
| ~  vibrato
| +  harmonic
| x  Mute note
            
Submit corrections



        With You Around lessons Hard to play? Try these video lessons and learn fast With You Around lessons
        
↑ Back to top | Tablatures and chords for acoustic guitar and electric guitar, ukulele, drums are parodies/interpretations of the original songs. You may use it for private study, scholarship, research or language learning purposes only