» » »

Yellowcard - Rocket Tabs

Artists:  A B C D E F G H I J K L M N O P Q R S T U V W X Y Z # 

Rocket Tabs

(ver. 3) Click to play this song!
Yellowcard
 Rating:
4/5 (4 votes)


 Rocket lessons Tabs too difficult? Try these video lessons and learn fast
 
                e|---------0------------------0----------------0-2-3--------2-3---------------|
B|-----3-----3---3--------3-----3---3--------3-------3-----3----3-------------|
G|---2---2-----2------------2-----2-------0-------------0---------------------|    4x
D|-4--------------------4-----------------------------------------------------|
A|----------------------------------------------------------------------------|
D|----------------------------------------------------------------------------|

Some Chords

D             G    D          G
Sleeping late on  Warm After noon
D         G     D            G
Waking up to  Bright SIlver moon


e|------|
B|-33---|
G|----2-|   16X    Or Intro 2X
D|------|
A|------|
D|------|

D              G   D            G
Silent words from   My heart to you
D           G     D              G
My empty filled  Filled up with you


Chorus
    (4x)       (2x)             (1x)
e|----0----|------0---|------3---5----3-----|
B|--3---3--|----3---3-|----3---3----3---3---|
G|-2-------|--4-------|--0------------------| 4X
D|---------|----------|---------------------|
A|---------|----------|---------------------|
D|---------|----------|---------------------|

or

D               G7        D    G
I slip another Smile in your pocket
D              G7                D  G         4X
My Heart is racing to you like a rocket


Intro 2x


D         g         D             G
My Empty Filled   Filled Up with you.


Chorus

e|----------------------------------|
B|------------------4-4-4-4---------|
G|------------------4-4-4-4---------|
D|--0-0-0-0-0-0-0-0-2-2-2-2-5-5-5-5-|     This while singing Chorus or
A|--0-0-0-0-0-0-0-0---------5-5-5-5-|
D|--0-0-0-0-0-0-0-0---------5-5-5-5-|

D               G7        D    G
I slip another Smile in your pocket
D              G7                D  G         4X
My Heart is racing to you like a rocket


Then that gets old so go into this


    (4x)       (2x)             (1x)
e|---------|----------|---------------------|
B|-----5---|------5---|------8---10---8-----|
G|---7---7-|----7---7-|----7---7----7---7---|  2x
D|-7-------|--9-------|--5------------------|
A|---------|----------|---------------------|
D|---------|----------|---------------------|

Then Finish up with

D               G7        D    G
I slip another Smile in your pocket
D              G7                D  G         1x
My Heart is racing to you like a rocket


*Well guys if you can sing this to a girl you are for life. The real version didn't work 
for this purpose so I worked this out and am yet to work up enough courage to try it. 
            
Submit corrections



        Rocket lessons Hard to play? Try these video lessons and learn fast Rocket lessons
        
↑ Back to top | Tablatures and chords for acoustic guitar and electric guitar, ukulele, drums are parodies/interpretations of the original songs. You may use it for private study, scholarship, research or language learning purposes only