» » »

Yellowcard - Holly Wood Died Bass

Artists:  A B C D E F G H I J K L M N O P Q R S T U V W X Y Z # 

Holly Wood Died Bass

(ver. 1) Click to play this song!
Yellowcard
 Rating:
4/5 (4 votes)


 Holly Wood Died lessons Tabs too difficult? Try these video lessons and learn fast
 
                Yellowcard
Hollywood Died



Intro

G-66666666
D---------|
A---------|
E---------|

Verse

G---6-------6-------6-------6-----|
D---------------------------------|
A-44-44-4-44-44-4-00-00-0-00-00-0-|
E---------------------------------|

G---6-------6-------6-------6-----|
D-44-44-4-66-66-6-77-77-7-77-77-7-|
A---------------------------------|
E---------------------------------|

G---6-------6-------9-------9-----|
D---------------------------------|
A-44-44-4-44-44-4-77-77-7-77-77-7-|
E---------------------------------|

G---11--------9------------9--------|
D-----------------------------------|
A-99-99-9-1111-1111-11-1212-1212-12-| x2(ELEVENS AND TWELVES)
E-----------------------------------|

Chorus X2

G-----------------------------------|
D-----------------------------------|
A-4444444444444444-00000000000000000
E-----------------------------------

G-----------------------------------|
D-----------------------------------|
A-2222222222222222-00000000000000000
E-----------------------------------

Verse

G---6-------6-------6-------6-----|
D---------------------------------|
A-44-44-4-44-44-4-00-00-0-00-00-0-|
E---------------------------------|

G---6-------6-------6-------6-----|
D-44-44-4-66-66-6-77-77-7-77-77-7-|
A---------------------------------|
E---------------------------------|

G---6-------6-------9-------9-----|
D---------------------------------|
A-44-44-4-44-44-4-77-77-7-77-77-7-|
E---------------------------------|

G---11--------9------------9--------|
D-----------------------------------|
A-99-99-9-1111-1111-10-1212-1212-12-| x2(ELEVENS AND TWELVES)
E-----------------------------------|

Chorus X2

G-----------------------------------|
D-----------------------------------|
A-4444444444444444-00000000000000000
E-----------------------------------

G-----------------------------------|
D-----------------------------------|
A-2222222222222222-00000000000000000
E-----------------------------------

Bridge

G-----------------------------------|
D-----------------------------------|
A-4444444444444444-77777777777777777
E-----------------------------------

G------------------------------------|
D------------------------------------|
A-0000000000000000-------------------|
E------------------22222222222222222-|

G-----------------------------------|
D-----------------------------------|
A-4444444444444444-77777777777777777
E-----------------------------------

G----------------------------------|
D----------------------------------|
A-0000000000000000-9999999988888888
E----------------------------------

Chorus
 THIS CHORUS JUST ONCE
G---------------------------|
D---------------------------|
A--PAUSE--00000000000000000-|
E---------------------------|

G-----------------------------------|
D-----------------------------------|
A-2222222222222222-00000000000000000
E-----------------------------------

 NOW THIS CHORUS X2
G-----------------------------------|
D-----------------------------------|
A-4444444444444444-00000000000000000
E-----------------------------------

G-----------------------------------|
D-----------------------------------|
A-2222222222222222-00000000000000000 LET RING SECOND TIME
E-----------------------------------

G----
D----
A-4~~
E----

OUTRO BIT

G-------------------------------------------|
D-------------------------------------------|
A-0-0-0----------------------------44444444-|
E-------00000000-77777777-22222222----------|

G----------------------------------------------|
D----------------------------------------------|
A-22222222----------44444444-66666666----------|
E----------22222222-------------------22222222-|

G----------------------------------------------|
D----------------------------------------------|
A-44444444-66666666-22222222-44444444-66666666-|
E----------------------------------------------|

G-----------------------------|
D-----------------------------|
A----------44444444-222222222-| FADE OUT SOMEHOW
E-22222222--------------------|

thats it!! pretty much rite.. please rate
            
Submit corrections



        Holly Wood Died lessons Hard to play? Try these video lessons and learn fast Holly Wood Died lessons
        
↑ Back to top | Tablatures and chords for acoustic guitar and electric guitar, ukulele, drums are parodies/interpretations of the original songs. You may use it for private study, scholarship, research or language learning purposes only