» » »

Yasuharu Takanashi - Tenka Fubu Tabs

Artists:  A B C D E F G H I J K L M N O P Q R S T U V W X Y Z # 

Tenka Fubu Tabs

(ver. 1) Click to play this song!
Yasuharu Takanashi
 Rating:
4/5 (4 votes)

 Tenka Fubu  lessons Tabs too difficult? Try these video lessons and learn fast
 
                Tuning: standard

 (0:16 - 0:25)
e|--------------------------------------------------------------------------------------|
B|--------------------------------------------------------------------------------------|
G|---------------------------------------------7-9-7------------------------------------|
D|-------7-5---5--10-8---5-------7-5---5--10-8------------------------------------------|
A|--5--8-----8---------8----5--8-----8--------------------------------------------------|
E|--------------------------------------------------------------------------------------|

 (0:31 - 0:58)
e|--------------------------------------------------------------------------------------|
B|-----------8-10--8--13-11-10--11--------8-10------------------------------------------|
G|--7--9--10------------------------7--10-------9--10--7--9-----------------------------|
D|--------------------------------------------------------------------------------------|
A|--------------------------------------------------------------------------------------|
E|--------------------------------------------------------------------------------------|

e|--------------------------------------------------------------------------------------|
B|-----------8-10--8--13-11-10--11--------8-10----------------8--10-8----8--------------|
G|--7--9--10------------------------7--10-------9--10--7-9-10---------10---10-9---------|
D|------------------------------------------------------------------------------7-7-777-|
A|--------------------------------------------------------------------------------------|
E|--------------------------------------------------------------------------------------|

 (0:58 - 1:27)
e|--------------------------------------------------------------------------------------|
B|-----------------8--10--13--8--10--11--10--10-8------8--10----------------10--8-------|
G|--10-9-7--9--10----------------------------------10---------7--9--10--10---------9----|
D|--------------------------------------------------------------------------------------|
A|--------------------------------------------------------------------------------------|
E|--------------------------------------------------------------------------------------|

e|------------------------------------------------------------------------------------10|
B|-----------------8--10--13--8--10--11--10--10-8------8--10----------------10--8--13---|
G|--10-9-7--9--10----------------------------------10---------7--9--10--10--------------|
D|--------------------------------------------------------------------------------------|
A|--------------------------------------------------------------------------------------|
E|--------------------------------------------------------------------------------------|

(1:38 - end)
e|--------------------------------------------------------------------------------------|
B|--------------------------------------------------------------------------------------|
G|---------------------------------------------7-9-7------------------------------------|
D|-------7-5---5--10-8---5-------7-5---5--10-8------------------------------------------|
A|--5--8-----8---------8----5--8-----8--------------------------------------------------|
E|--------------------------------------------------------------------------------------|            
Submit corrections


        Tenka Fubu  lessons Hard to play? Try these video lessons and learn fast Tenka Fubu  lessons
        
↑ Back to top | Tablatures and chords for acoustic guitar and electric guitar, ukulele, drums are parodies/interpretations of the original songs. You may use it for private study, scholarship, research or language learning purposes only