» » »

Yardbirds - Heart Full Of Soul Bass

Artists:  A B C D E F G H I J K L M N O P Q R S T U V W X Y Z # 

Heart Full Of Soul Bass

(ver. 2) Click to play this song!
Yardbirds
 Rating:
4/5 (4 votes)


 Heart Full Of Soul lessons Tabs too difficult? Try these video lessons and learn fast
 
                Heart Full Of Soul
The Yardbirds
Written by Graham Gouldman; released as a single with "Steeled Blues" as the 
B-side.

Intro:
G|------- ------- ------- -------|------- ------- ------- -------|
D|-------------------------------|-------------------------------|
A|5------------------------------|-------------------------------|
E|-------------------------------|-------------------------------|



G|------- ------- ------- -------|------- ------- ------- -------|
D|-------------------------------|-------------------------------|
A|5------------------------------|-------------------------------|
E|-------------------------------|-------------------------------|



G|------- ------- ------- -------|------- ------- ------- -------|
D|-------------------------------|-------------------------------|
A|5------------------------------|-------------------------------|
E|-------------------------------|-------------------------------|



G|------- ------- ------- -------|------- ------- ------- -------|
D|-------------------------------|-------------------------------|
A|5------------------------------|-------------------------------|
E|-------------------------------|-------------------------------|


Verse:
G|------- ------- ------- -------|------- ------- ------- -------|
D|-------------------------------|5-------5---5-----------5---5--|
A|5-----------5-----------5------|----------------5--------------|
E|----------------5--------------|-------------------------------|
       Sick  at   heart   and lone -  ly,


G|------- ------- ------- -------|------- ------- ------- -------|
D|8-----------8------------------|------------------------7------|
A|----------------8--------------|5-----------5------------------|
E|------------------------6------|----------------5--------------|
       deep  in   dark des - pair,
                                 (o     -     o   -   o   -   o-

G|------- ------- ------- -------|------- ------- ------- -------|
D|------------------------7------|5-----------5-----------5---7--|
A|5-----------5------------------|----------------5--------------|
E|----------------5--------------|-------------------------------|
          Thinking one thought on  -  ly,
  oh)

G|------- ------- ------- -------|------- ------- ------- -------|
D|8-----------8------------------|------------------------7------|
A|----------------8--------------|5-----------5------------------|
E|------------------------6------|----------------5--------------|
      where is she,    tell  me,  where?
                                 (o     -     o   -   oh)

G|------- ------- ------- -------|------- ------- ------- -------|
D|----------------7--------------|5-----------5---------------5--|
A|5-----------5-----------5------|----------------5--------------|
E|-------------------------------|-------------------------------|
      And     if  she  says       to      you


G|------- ------- ------- -------|------- ------- ------- -------|
D|8-----------8------------------|-------------------------------|
A|----------------8-----------8--|5-----------5------------------|
E|-------------------------------|----------------5-----------5--|
      she     don't   love        me,
                                 (o     -     o   -   o   -   o-

G|------- ------- ------- -------|------- ------- ------- -------|
D|----------------7--------------|5-----------5-----------5---7--|
A|5-----------5-----------5------|----------------5--------------|
E|-------------------------------|-------------------------------|
          Just    give her my mes  -  sage,
  oh)

G|------- ------- ------- -------|------- ------- ------- -------|
D|8-----------8------------------|-------------------------------|
A|----------------8--------------|5-------5----------------------|
E|------------------------6------|-------------------------------|
          tell her of my      plea.                   And I   know,

Refrain:
G|------- ------- ------- -------|------- ------- ------- -------|
D|-------------------------------|3-------3-------5-------5------|
A|5-------5-------5-------5------|-------------------------------|
E|-------------------------------|-------------------------------|
                      well, if she had    me      back a  -   gain,


G|------- ------- ------- -------|------- ------- ------- -------|
D|-------------------------------|8------------------------------|
A|5-------5-------5-------5------|----------------8---8---8------|
E|-------------------------------|--------6----------------------|
                      well, I would never         make her    sad,


G|------- ------- ------- -------|------- ------- ------- -------|
D|-------------------------------|7------------------------------|
A|5-------5-------5-------5------|-------------------------------|
E|-------------------------------|-------------------------------|
                      I've got a  heart


G|------- ------- ------- -------|------- ------- ------- -------|
D|5------------------------------|-------------------------------|
A|-------------------------------|5------------------------------|
E|-------------------------------|-------------------------------|
                      full of soul.


G|------- ------- ------- -------|------- ------- ------- -------|
D|-------------------------------|-------------------------------|
A|-------------------------------|5------------------------------|
E|-------------------------------|-------------------------------|



G|------- ------- ------- -------|
D|-------------------------------|
A|-------------------------------|
E|-------------------------------|


Break (solo):
G|------- ------- ------- -------|------- ------- ------- -------|
D|-------------------------------|5-----------5-----------5---7--|
A|5-----------5-----------5------|----------------5--------------|
E|----------------5--------------|-------------------------------|



G|------- ------- ------- -------|------- ------- ------- -------|
D|8-----------8------------------|----------------7-------7---7--|
A|----------------8--------------|5-----------5------------------|
E|------------------------6------|-------------------------------|



G|------- ------- ------- -------|------- ------- ------- -------|
D|----------------7-------7------|5-------5---5-----------5---7--|
A|5-----------5------------------|----------------5--------------|
E|-------------------------------|-------------------------------|



G|------- ------- ------- -------|------- ------- ------- -------|
D|8-----------8-----------8------|-------------------------------|
A|----------------8--------------|5-------5----------------------|
E|-------------------------------|-------------------------------|
                                                      And I   know,

Refrain:
G|------- ------- ------- -------|------- ------- ------- -------|
D|-------------------------------|3-------3-------5---5---5------|
A|5-------5-------5-------5------|-------------------------------|
E|-------------------------------|-------------------------------|
                          if she  had    me      back a  -   gain,


G|------- ------- ------- -------|------- ------- ------- -------|
D|-------------------------------|8------------------------------|
A|5-------5-------5-------5------|----------------8---8---8------|
E|-------------------------------|--------6----------------------|
                      well, I would never         make her    sad,


G|------- ------- ------- -------|------- ------- ------- -------|
D|-------------------------------|7------------------------------|
A|5-------5-------5-------5------|-------------------------------|
E|-------------------------------|-------------------------------|
                      I've got a  heart


G|------- ------- ------- -------|------- ------- ------- -------|
D|5------------------------------|-------------------------------|
A|-------------------------------|5------------------------------|
E|-------------------------------|-------------------------------|
                      full of soul.


G|------- ------- ------- -------|------- ------- ------- -------|
D|-------------------------------|-------------------------------|
A|-------------------------------|5------------------------------|
E|-------------------------------|-------------------------------|



G|------- ------- ------- -------|
D|-------------------------------|
A|-------------------------------|
E|-------------------------------|


Verse:
G|------- ------- ------- -------|------- ------- ------- -------|
D|-------------------------------|5-----------5-----------5------|
A|5-----------5-----------5------|----------------5--------------|
E|----------------5--------------|-------------------------------|
       She's been gone    such a  long        time,


G|------- ------- ------- -------|------- ------- ------- -------|
D|8-----------8------------------|----------------7-----------7--|
A|----------------8--------------|5-----------5------------------|
E|------------------------6------|-------------------------------|
       lon - ger  than I     can  bear,
                                 (o     -     o   -   o   -   o-

G|------- ------- ------- -------|------- ------- ------- -------|
D|----------------7--------------|5-----------5-----------5---7--|
A|5-----------5-----------5------|----------------5--------------|
E|-------------------------------|-------------------------------|
          But if  she says    she wants       me,
  oh)

G|------- ------- ------- -------|------- ------- ------- -------|
D|8-----------8-----------8------|----------------7-----------7--|
A|----------------8--------------|5-----------5-----------5------|
E|-------------------------------|-------------------------------|
          tell her that I'll  be  there.
                                 (o     -     o   -   oh)

G|------- ------- ------- -------|------- ------- ------- -------|
D|----------------7-------7------|5-----------5-----------5---7--|
A|5-----------5------------------|----------------5---5----------|
E|-------------------------------|-------------------------------|
      And     if  she  says       to      you


G|------- ------- ------- -------|------- ------- ------- -------|
D|8-----------8-----------8------|-------------------------------|
A|----------------8--------------|5-----------5------------------|
E|-------------------------------|----------------5-----------5--|
      she     don't   love        me,
                                 (o     -     o   -   o   -   o-

G|------- ------- ------- -------|------- ------- ------- -------|
D|----------------------------3--|5-----------5-----------5---7--|
A|5-----------5-----------5------|----------------5--------------|
E|----------------5--------------|-------------------------------|
          Just    give her my mes  -  sage,
  oh)

G|------- ------- ------- -------|------- ------- ------- -------|
D|8-----------8------------------|-------------------------------|
A|----------------8--------------|5-------5----------------------|
E|------------------------6------|-------------------------------|
          tell her of my      plea.                   And I   know,

Refrain:
G|------- ------- ------- -------|------- ------- ------- -------|
D|-------------------------------|3-------3-------5-------5------|
A|5-------5-------5-------5------|-------------------------------|
E|-------------------------------|-------------------------------|
                      well, if she had    me      back a  -   gain,


G|------- ------- ------- -------|------- ------- ------- -------|
D|-------------------------------|8------------------------------|
A|5-------5-------5-------5------|----------------8---8---8------|
E|-------------------------------|--------6----------------------|
                      well, I would never         make her    sad,


G|------- ------- ------- -------|------- ------- ------- -------|
D|-------------------------------|7------------------------------|
A|5-------5-------5-------5------|-------------------------------|
E|-------------------------------|-------------------------------|
                      I've got a  heart


G|------- ------- ------- -------|
D|5------------------------------|
A|-------------------------------|
E|-------------------------------|
                      full of soul.

Outro:
G|------- ------- ------- -------|------- ------- ------- -------|
D|-------------------------------|-------------------------------|
A|5------------------------------|-------------------------------|
E|-------------------------------|-------------------------------|



G|------- ------- ------- -------|------- ------- ------- -------|
D|-------------------------------|-------------------------------|
A|5------------------------------|-------------------------------|
E|-------------------------------|-------------------------------|



G|------- ------- ------- -------|------- ------- ------- -------|
D|-------------------------------|-------------------------------|
A|5------------------------------|-------------------------------|
E|-------------------------------|-------------------------------|



G|------- ------- ------- -------|------- ------- ------- -------|
D|-------------------------------|-------------------------------|
A|5------------------------------|-------------------------------|
E|-------------------------------|-------------------------------|

Please e-mail me for any corrections, or write a comment.
            
Submit corrections



        Heart Full Of Soul lessons Hard to play? Try these video lessons and learn fast Heart Full Of Soul lessons
        
↑ Back to top | Tablatures and chords for acoustic guitar and electric guitar, ukulele, drums are parodies/interpretations of the original songs. You may use it for private study, scholarship, research or language learning purposes only