» » »

Yann Tiersen - The Trial Tabs

Artists:  A B C D E F G H I J K L M N O P Q R S T U V W X Y Z # 

The Trial Tabs

(ver. 1) Click to play this song!
Yann Tiersen
 Rating:
3.1/5 (29 votes)

 The Trial  lessons Tabs too difficult? Try these video lessons and learn fast
 
                Guitar starts up at around 2:42

e|----------------------------------------|----------------------------------------|
B|----------------------------------------|----------------------------------------|
G|----------------------------------------|----------------------------------------|
D|--------6~~~6~~~6~--------6~~~6~~~6-----|--------6~~~6~~~6~--------6~~~6~~~6-----|
A|---7--7~~~7~~~7~~~6--7--7~~~7~~~7~~~6---|------------------6-----------------6---|
E|----------------------------------------|---5--5~~~5~~~5~~~---5--5~~~5~~~5~~~----|

e|----------------------------------------|----------------------------------------|
B|----------------------------------------|----------------------------------------|
G|----------------------------------------|----------------------------------------|
D|--------6~~~6~~~6~--------6~~~6~~~6-----|--------6~~~6~~~6~--------6~~~6~~~6-----|
A|---7--7~~~7~~~7~~~6--7--7~~~7~~~7~~~6---|------------------6-----------------4---|
E|----------------------------------------|---5--5~~~5~~~5~~~---5--5~~~5~~~5~~~----|

e|----------------------------------------|----------------------------------------|
B|----------------------------------------|----------------------------------------|
G|----------------------------------------|----------------------------------------|
D|--------4~~~4~~~4~--------2~~~2~~~2-----|--------2~~~2~~~2~--------2~~~2~~~2-----|
A|---6--6~~~6~~~6~~~2--4--4~~~4~~~4~~~0---|---2--2~~~2~~~2~~~0--2--2~~~2~~~2~~~4---|
E|----------------------------------------|----------------------------------------|

e|----------------------------------------|----------------------------------------|
B|----------------------------------------|----------------------------------------|
G|----------------------------------------|----------------------------------------|
D|--------4~~~4~~~4~--------2~~~2~~~2-----|--------2~~~2~~~2~--------2~~~2~~~2-----|
A|---6--6~~~6~~~6~~~2--4--4~~~4~~~4~~~0---|---2--2~~~2~~~2~~~0--2--2~~~2~~~2~~~6---|
E|----------------------------------------|----------------------------------------|            
Submit corrections


        The Trial  lessons Hard to play? Try these video lessons and learn fast The Trial  lessons
        
↑ Back to top | Tablatures and chords for acoustic guitar and electric guitar, ukulele, drums are parodies/interpretations of the original songs. You may use it for private study, scholarship, research or language learning purposes only