» » »

Xutos And Pontapes - Para Sempre Tabs

Artists:  A B C D E F G H I J K L M N O P Q R S T U V W X Y Z # 

Para Sempre Tabs

(ver. 1) Click to play this song!
Xutos And Pontapes
 Rating:
4.5/5 (8 votes)
                PARA MAIS TABS PORTUGUESAS DE PUNK:

Introdução:

Riff 1:

|---------------------------------|---------------------------------|
|---------------------------------|-12------------------------------|
|-9---8-9-8---9--9---6---6--8--9--|---------------------------------|
|---------------------------------|---------------------------------|
|---------------------------------|---------------------------------|
|---------------------------------|---------------------------------|

|---------------------------------|---------------------------------|
|---------------------------------|---------4---------2-------------|
|-9---8-9-8---6--8--9---9-8--6----|---------------------------------|
|-------------------------------4-|---2--4------2--4----------------|
|---------------------------------|---------------------------------|
|---------------------------------|---------------------------------|




G#m F# C#
O nosso amor de sempre
D# B C#
Brilhará p'ra sempre
G#m E
Ai meu amor
B F#
O que eu já chorei
D#
Por ti


D# C#
Mas sempre
G# A#m
P'ra sempre
F# G#m
Vou gostar de ti



Riff 1

G#m F#
Juro meu amor
C#
De sempre
D# B
Voltarei
C#
P'ra sempre


G#m E
Ai meu amor
B
O que eu já
F# D#
Chorei por ti
D# C#
Mas sempre
G# A#m
P'ra sempre
F# G#m
Gostarei de ti


riff 1

G#m E
Ai meu amor
B F#
O que eu já chorei
D#
Por ti


D# C#
Mas sempre
G# A#m
P'ra sempre
F# G#m
Vou gostar de ti


PARA MAIS TABS PORTUGUESAS DE PUNK:
            
Submit corrections

↑ Back to top | Tablatures and chords for acoustic guitar and electric guitar, ukulele, drums are parodies/interpretations of the original songs. You may use it for private study, scholarship, research or language learning purposes only