Home » X » Xpdc »

Xpdc - Cinta Tabs

Artists:  A B C D E F G H I J K L M N O P Q R S T U V W X Y Z # 

Cinta Tabs

(ver. 1) Click to play this song!
Xpdc
Tuning:Standard


e|---------------------------------------------------------------------------|
B|--/8---8-8h10/11-10---8---8-----8-8h10/11-10---8-----/8---8-8h10/11-10-----|
G|-----7------------------7---7---------------------------7------------------|
D|---------------------------------------------------------------------------|
A|---------------------------------------------------------------------------|
E|---------------------------------------------------------------------------|

e|---------------------------------------------------------------------------|
B|--8------------------------------------------------------------------------|
G|----7----5~----/5-8-7-8/10-8-10/12-10-/15-14---15-------15-14---15-17------|
D|--------------------------------------------------15-----------------------|
A|---------------------------------------------------------------------------|
E|---------------------------------------------------------------------------|

e|---------------------------------------------------------------------------|
B|---------------------------------------------------------------------------|
G|--15p14-15---14h15p14-12-----/12-15-14-15/17-15-17/19-17-20-19-17---17-----|
D|---------------------------------------------------------------------------|
A|---------------------------------------------------------------------------|
E|---------------------------------------------------------------------------|

e|---------------------------------------------------------------------------|
B|-------------------------------------------------------18--16--15----------|
G|--17h19p17-16--17-19-20br-20-----17h19p17-16--17-19-20-------------17------|
D|---------------------------------------------------------------------------|
A|---------------------------------------------------------------------------|
E|---------------------------------------------------------------------------|

e|---------------------------------------------------------------------------|
B|--16--15-15----------------------------------------------------------------|
G|--------------17-17--15-15-14-15-17-17/19-17---17h19p17-16--17-19-20br-20--|
D|---------------------------------------------------------------------------|
A|---------------------------------------------------------------------------|
E|---------------------------------------------------------------------------|

e|------------------------------------20--18--17-17--15-15-------------------|
B|------------------------18--20--22------------------------15--18-18--16-16-|
G|--17h19p17-16--17-19-20----------------------------------------------------|
D|---------------------------------------------------------------------------|
A|---------------------------------------------------------------------------|
E|---------------------------------------------------------------------------|

e|---------------------15----------------------------------------------------|
B|--15-16-15---16-15------15~------------------------------------------------|
G|---------------------------------------------------------------------------|
D|---------------------------------------------------------------------------|
A|---------------------------------------------------------------------------|
E|---------------------------------------------------------------------------|

e|---------------------------------------------------------------------------|
B|---------------------------------------------------------------------------|
G|---------------------------------------------------------------------------|
D|---------------------------------------------------------------------------|
A|---------------------------------------------------------------------------|
E|---------------------------------------------------------------------------|
            
Submit corrections

↑ Back to top | Tablatures and chords for acoustic guitar and electric guitar, ukulele, drums are parodies/interpretations of the original songs. You may use it for private study, scholarship, research or language learning purposes only