Home » X » Xiu Xiu »

Xiu Xiu - Save Me Tabs

Artists:  A B C D E F G H I J K L M N O P Q R S T U V W X Y Z # 

Save Me Tabs

(ver. 1) Click to play this song!
Xiu Xiu
E|-----------------0-0-----0-0---0-------------------0-0---0-----|
B|---------------------1-1-----1-----------------1-1-----1---1-1-|
G|-----2-----2-----------------------2-------2-------------------|
D|-3-3---3-3---3-3-----------------3---3-3-3---3-----------------|
A|---------------------------------------------------------------|
E|---------------------------------------------------------------|


E|--------------------------------------------------------------------------|
B|--------------------------------------------------------------------------|
G|-----10-10-10-9-9-9-9-9-9-9-12-12-12-------10-10-12-9-9-9-9-9-9-9-7-7-7-7-|
D|77-7---------------------------------7-7-7--------------------------------|
A|--------------------------------------------------------------------------|
E|--------------------------------------------------------------------------|
            
Submit corrections

↑ Back to top | Tablatures and chords for acoustic guitar and electric guitar, ukulele, drums are parodies/interpretations of the original songs. You may use it for private study, scholarship, research or language learning purposes only