Home » X » Xiu Xiu »

Xiu Xiu - Gray Death Tabs

Artists:  A B C D E F G H I J K L M N O P Q R S T U V W X Y Z # 

Gray Death Tabs

(ver. 1) Click to play this song!
Xiu Xiu
-------------------------------------------------------------------------------
-------------------------------------------------------------------------------

Notes: Pretty simple and catchy. Let me know if you like it.

Tuning: Standard
Time Signature: 4/4, but with one or two random short measures..



 intro:

    |       |       |       |     
e|--7-7-7-7-7-7-7-7-7-7-7-7-7-7-7-7---|
B|.-0-0-0-0-0-0-0-0-0-0-0-0-0-0-0-0-.-|
G|------------------------------------|
D|------------------------------------|
A|.---------------------------------.-|
E|------------------------------------|



 chorus rhythm:  

     |       |         |         |
e|---0-0-0-0-0-0-0-0---0-0-0---0---0-0-----|                                    
B|.--0-0-0-0-0-0-0-0---0-0-0---0---0-0---.-|    
G|---0-0-0-0-0-0-0-0---0-0-0---2---0-0-----| 
D|---2-2-2-2-2-2-2-2---2-2-2---2---4-4-----|                                    
A|.--2-2-2-2-2-2-2-2---3-3-3---0---2-2---.-|                                    
E|---0-0-0-0-0-0-0-0-----------------------|    

  "Beat, beat me to die, I said it.."    


              
  
 verse 1 rhythm:              
     |       |          |       |           |       |       |       |
e|---3-3-3-3-3-3-3-3----2-2-2-2-2-2-2-2--|--0---------------------------------|
B|.--3-3-3-3-3-3-3-3----2-2-2-2-2-2-2-2--|--0-------------------------------.-|
G|---------------------------------------|------------------------------------|
D|---5-5-5-5-5-5-5-5----4-4-4-4-4-4-4-4--|--2---------------------------------|
A|.--5-5-5-5-5-5-5-5----4-4-4-4-4-4-4-4--|--2-------------------------------.-|
E|---3-3-3-3-3-3-3-3----2-2-2-2-2-2-2-2--|--0-0-0-0-0-0-0-0-0-0-0-0-0-0-0-0---|

     "If you are   expecting consolation,     I will become outrageous.."




 verse 2, rhythm: 

       |     |     |     |      |    |    |    |
e|---0-0--------------------|-0-0----------------------|
B|.--0-0--------------------|-0-0---------------------.|
G|---0-0--------------------|-0-0----------------------|
D|---2-2--------------------|-4-4----------------------|
A|.--3-3--------------------|-5-5---------------------.|
E|--------------------------|--------------------------|

                  "Chew the    corner of your mouth.."





 distorted part:

     |       |           |          |          |       |            |         |
e|------------------------------------------|---------------------7-7--5-5--3-3-3-3-3---|
B|---5-5-5-5-5--8--8--8--8---3-3--1-1-1-1-1-|--5-5-5-5-5--8---7---9-9--7-7--5-5-5-5-5---|
G|---5-5-5-5-5--9--9--9--9---4-4--2-2-2-2-2-|--5-5-5-5-5--9---9---9-9--7-7--5-5-5-5-5---|
D|---7-7-7-7-7--10-10-10-10--5-5--3-3-3-3-3-|--7-7-7-7-7--10--10--9-9--7-7--5-5-5-5-5---|
A|---7-7-7-7-7--10-10-10-10--5-5--3-3-3-3-3-|--7-7-7-7-7--10--10--7-7--5-5--3-3-3-3-3---|
E|---5-5-5-5-5--8--8--8--8---3-3--1-1-1-1-1-|--5-5-5-5-5--8---8-------------------------|






 during noise part, played clean-ish:

    |       |       |       |          |       |       |       |    
e|--0-0-0-0-0-0-0-0-0-0-0-0-0-3-3-3-|--0-0-0-0-0-0-0-0-0-0-0-0-0-3-3-3-------|
B|--0-0-0-0-0-0-0-0-0-0-0-0-0-0-0-0-|--0-0-0-0-0-0-0-0-0-0-0-0-0-0-0-0-------|
G|----------------------------------|----------------------------------------|
D|----------------------------------|----------------------------------------|
A|----------------------------------|----------------------------------------|
E|----------------------------------|----------------------------------------|

    |       |       |       |       |  |       |       |       |
e|--0-0-0-0-0-0-0-5-5-5-5-5-5-5-5-3-|--3-3-3-3-3-3-3--------------------||
B|--0-0-0-0-0-0-0-0-0-0-0-0-0-0-0-0-|--0-0-0-0-0-0-0--------------------||
G|----------------------------------|----------------2-2-2-2-2-2-2------||
D|----------------------------------|----------------0-0-0-0-0-0-0------||
A|----------------------------------|-----------------------------------||
E|----------------------------------|-----------------------------------||




************************************

| /   slide up
| \   slide down
| h   hammer-on
| p   pull-off
| ~   vibrato
| +   harmonic
| x   Mute note
| b   Bend
| pb  Pre-bend
| br  Bend release
| pbr Pre-bend release
| brb Bend release bend

*****************************
            
Submit corrections

↑ Back to top | Tablatures and chords for acoustic guitar and electric guitar, ukulele, drums are parodies/interpretations of the original songs. You may use it for private study, scholarship, research or language learning purposes only