Home » X » Xavier Rudd »

Xavier Rudd - Follow The Sun Tabs

Artists:  A B C D E F G H I J K L M N O P Q R S T U V W X Y Z # 

Follow The Sun Tabs

(ver. 2) Click to play this song!
Xavier Rudd
Tuning: DADGBD

Capo 5 

Intro:

        D             Dsus2             D             Dsus2
d|------2---2-----------4---2-----------2---2-----------4---2-----------|
B|------3---3-----------3---3-----------3---3-----------3---3-----------|
G|------2---2-----------2---2-----------2---2-----------2---2-----------|
D|------0----0----------0----0----------0----0----------0----0----------|
A|----------------------------------------------------------------------|
D|---0----0----------0----0----------0----0----------0----0-------------|

        D             Dsus2             D             Dsus2
d|------2---2-----------4---2-----------2---2-----------4---2-----------|
B|------3---3-----------3---3-----------3---3-----------3---3-----------|
G|------2---2-----------2---2-----------2---2-----------2---2-----------|
D|------0----0----------0----0----------0----0----------0----0----------|
A|----------------------------------------------------------------------|
D|---0----0----------0----0----------0----0----------0----0-------------|

Harmonica part 1:

        D             Dsus2             D             Dsus2
d|------2---2-----------4---2-----------2---2-----------4---2-----------|
B|------3---3-----------3---3-----------3---3-----------3---3-----------|
G|------2---2-----------2---2-----------2---2-----------2---2-----------|
D|------0----0----------0----0----------0----0----------0----0----------|
A|----------------------------------------------------------------------|
D|---0----0----------0----0----------0----0----------0----0-------------|

        D             Dsus2             D             Dsus2
d|------2---2-----------4---2-----------2---2-----------4---2-----------|
B|------3---3-----------3---3-----------3---3-----------3---3-----------|
G|------2---2-----------2---2-----------2---2-----------2---2-----------|
D|------0----0----------0----0----------0----0----------0----0----------|
A|----------------------------------------------------------------------|
D|---0----0----------0----0----------0----0----------0----0-------------|

      G
d|------0---0-----------0---0-----------0---0-----------0---0-----------|
B|------0---0-----------0---0-----------0---0-----------0---0-----------|
G|------0---0-----------0---0-----------0---0-----------0---0-----------|
D|------5----5----------5----5----------5----5----------5----5----------|
A|----------------------------------------------------------------------|
D|---5----5----------5----5----------5----5----------5----5-------------|

        D             Dsus2             D             Dsus2
d|------2---2-----------4---2-----------2---2-----------4---2-----------|
B|------3---3-----------3---3-----------3---3-----------3---3-----------|
G|------2---2-----------2---2-----------2---2-----------2---2-----------|
D|------0----0----------0----0----------0----0----------0----0----------|
A|----------------------------------------------------------------------|
D|---0----0----------0----0----------0----0----------0----0-------------|

        Em             Em               G             G
d|------0---0-----------0---0-----------0---0-----------0---0-----------|
B|------0---0-----------0---0-----------0---0-----------0---0-----------|
G|------0---0-----------0---0-----------0---0-----------0---0-----------|
D|------2----2----------2----2----------5----5----------5----5----------|
A|----------------------------------------------------------------------|
D|---2----2----------2----2----------5----5----------5----5-------------|

        D             Dsus2             D             Dsus2
d|------2---2-----------4---2-----------2---2-----------4---2-----------|
B|------3---3-----------3---3-----------3---3-----------3---3-----------|
G|------2---2-----------2---2-----------2---2-----------2---2-----------|
D|------0----0----------0----0----------0----0----------0----0----------|
A|----------------------------------------------------------------------|
D|---0----0----------0----0----------0----0----------0----0-------------|

Verse:

        D             Dsus2             D             Dsus2
d|------2---2-----------4---2-----------2---2-----------4---2-----------|
B|------3---3-----------3---3-----------3---3-----------3---3-----------|
G|------2---2-----------2---2-----------2---2-----------2---2-----------|
D|------0----0----------0----0----------0----0----------0----0----------|
A|----------------------------------------------------------------------|
D|---0----0----------0----0----------0----0----------0----0-------------|
  1.  Follow,                                            follow the
  2.  Breathe,                                           breathe in the

        D             Dsus2             D             Dsus2
d|------2---2-----------4---2-----------2---2-----------4---2-----------|
B|------3---3-----------3---3-----------3---3-----------3---3-----------|
G|------2---2-----------2---2-----------2---2-----------2---2-----------|
D|------0----0----------0----0----------0----0----------0----0----------|
A|----------------------------------------------------------------------|
D|---0----0----------0----0----------0----0----------0----0-------------|
      sun,                                               which way the 
      air,                                               set your in-

      G
d|------0---0-----------0---0-----------0---0-----------0---0-----------|
B|------0---0-----------0---0-----------0---0-----------0---0-----------|
G|------0---0-----------0---0-----------0---0-----------0---0-----------|
D|------5----5----------5----5----------5----5----------5----5----------|
A|----------------------------------------------------------------------|
D|---5----5----------5----5----------5----5----------5----5-------------|
    wind blows,                                         when this day is
     tentions,                                            dream with

        D             Dsus2             D             Dsus2
d|------2---2-----------4---2-----------2---2-----------4---2-----------|
B|------3---3-----------3---3-----------3---3-----------3---3-----------|
G|------2---2-----------2---2-----------2---2-----------2---2-----------|
D|------0----0----------0----0----------0----0----------0----0----------|
A|----------------------------------------------------------------------|
D|---0----0----------0----0----------0----0----------0----0-------------|
     done.
     care.

Prechorus 1:

      Em                               G
d|------0---0-----------0---0-----------0---0-----------0---0-----------|
B|------0---0-----------0---0-----------0---0-----------0---0-----------|
G|------0---0-----------0---0-----------0---0-----------0---0-----------|
D|------2----2----------2----2----------5----5----------5----5----------|
A|----------------------------------------------------------------------|
D|---2----2----------2----2----------5----5----------5----5-------------|
   1.              Tomorrow's a new  day for every-
   2.                Brand new       moon, brand new

        D             Dsus2             D             Dsus2
d|------2---2-----------4---2-----------2---2-----------4---2-----------|
B|------3---3-----------3---3-----------3---3-----------3---3-----------|
G|------2---2-----------2---2-----------2---2-----------2---2-----------|
D|------0----0----------0----0----------0----0----------0----0----------|
A|----------------------------------------------------------------------|
D|---0----0----------0----0----------0----0----------0----0-------------|
     one,
     sun.

Harmonica part 1

Verse:

So follow, follow the sun,
the direction of the birds,
the direction of love.
Breath, breath in the air,
cherish this moment,
cherish this breath.

Prechorus 1

Bridge:
                                       Dsus2            Dsus2
d|--------0---0--------0---0------------2---2-----------2---2-----------|
B|--------0---0--------0---0------------3---3-----------3---3-----------|
G|--------0---0--------0---0------------2---2-----------2---2-----------|
D|--------0------------0----0-----------0----0----------0----0----------|
A|---0-3----------3-2---------------------------------------------------|
D|-----------------------------------0----0----------0----0-------------|
    When you feel life coming down on you,
    like a heavy wave.
    When you feel this crazy society,
    headin' to the strand.
    Take a stroll to the nearest waters edge;
    Remember your place.
    Many moons have risen and fallen long, 
    long before you came. So which way is the

Prechorus 2:

      G
d|------0---0-----------0---0-----------0---0-----------0---0-----------|
B|------0---0-----------0---0-----------0---0-----------0---0-----------|
G|------0---0-----------0---0-----------0---0-----------0---0-----------|
D|------5----5----------5----5----------5----5----------5----5----------|
A|----------------------------------------------------------------------|
D|---5----5----------5----5----------5----5----------5----5-------------|
     wind blowing,                                     what does your heart

        D             Dsus2             D             Dsus2
d|------2---2-----------4---2-----------2---2-----------4---2-----------|
B|------3---3-----------3---3-----------3---3-----------3---3-----------|
G|------2---2-----------2---2-----------2---2-----------2---2-----------|
D|------0----0----------0----0----------0----0----------0----0----------|
A|----------------------------------------------------------------------|
D|---0----0----------0----0----------0----0----------0----0-------------|
     say?

Harmonica part 2

      Em                               G
d|------0---0-----------0---0-----------0---0-----------0---0-----------|
B|------0---0-----------0---0-----------0---0-----------0---0-----------|
G|------0---0-----------0---0-----------0---0-----------0---0-----------|
D|------2----2----------2----2----------5----5----------5----5----------|
A|----------------------------------------------------------------------|
D|---2----2----------2----2----------5----5----------5----5-------------|

        D             Dsus2             D             Dsus2
d|------2---2-----------4---2-----------2---2-----------4---2-----------|
B|------3---3-----------3---3-----------3---3-----------3---3-----------|
G|------2---2-----------2---2-----------2---2-----------2---2-----------|
D|------0----0----------0----0----------0----0----------0----0----------|
A|----------------------------------------------------------------------|
D|---0----0----------0----0----------0----0----------0----0-------------|

Harmonica Part 1

Verse:

So follow, follow the sun,
and which way the wind blows
when this day is done.


************************************

Alternative pattern for the whole song:

        D              Dsus2          D              Dsus2
d|------2--2-----------4--2-----------2--2-----------4--2-----------|
B|------3--3-----------3--3-----------3--3-----------3--3-----------|
G|------2--2-----------2--2-----------2--2-----------2--2-----------|
D|------0---0----------0---0----------0---0----------0---0----------|
A|------------------------------------------------------------------|
D|----0----0---------0----0---------0----0---------0----0-----------|
            
Submit corrections

↑ Back to top | Tablatures and chords for acoustic guitar and electric guitar, ukulele, drums are parodies/interpretations of the original songs. You may use it for private study, scholarship, research or language learning purposes only