» » »

Wolfgang Amadeus Mozart - Violin Concerto No 3 In G K 216-3 Tabs

Artists:  A B C D E F G H I J K L M N O P Q R S T U V W X Y Z # 

Violin Concerto No 3 In G K 216-3 Tabs

(ver. 1) Click to play this song!
Wolfgang Amadeus Mozart
 Rating:
4/5 (4 votes)

 Violin Concerto No 3 In G K 216-3  lessons Tabs too difficult? Try these video lessons and learn fast
 
                    1  (2)  3  (4)    1  (2)  3  (4)     1  (2)  3  (4)    1  (2)  3  (4)
E|------------------------------------------------------------------------|
B|------------------------------------------------------------------------|
G|------------2-----------------2-----------------2-----------------2-----|
D|--------4-4---------------4-4----------------4-4---------------4-4------| (PALM MUTE)
A|------4-------4---------4-------4----------4-------4---------4-------4--|
E|--2-5---------------2-5----------------2-5---------------2-5------------|

    1  (2)  3  (4)    1  (2)  3  (4)     1  (2)  3  (4)    1  (2)  3
E|------------------------------------------------------------------------|
B|--14-14-14/15-15\12-10/12-14-12-10h9h10-12-10-9-7h9-7-7-9-14-14-14/15---|
G|------------------------------------------------------------------------|
D|------------------------------------------------------------------------|
A|------------------------------------------------------------------------|
E|------------------------------------------------------------------------|
    (4)  1  (2)  3  (4)       1  (2)  3  (4)
E|-------------------------------------------|
B|--15\12-10/12-14-12-10h9h10-12-10-9-7h9-7--|
G|-------------------------------------------|
D|-------------------------------------------|
A|-------------------------------------------|
E|-------------------------------------------|
            
Submit corrections


        Violin Concerto No 3 In G K 216-3  lessons Hard to play? Try these video lessons and learn fast Violin Concerto No 3 In G K 216-3  lessons
        
↑ Back to top | Tablatures and chords for acoustic guitar and electric guitar, ukulele, drums are parodies/interpretations of the original songs. You may use it for private study, scholarship, research or language learning purposes only