» » »

Wolfgang Amadeus Mozart - Rondo Alla Turca Tabs

Artists:  A B C D E F G H I J K L M N O P Q R S T U V W X Y Z # 

Rondo Alla Turca Tabs

(ver. 1) Click to play this song!
Wolfgang Amadeus Mozart
 Rating:
4.2/5 (20 votes)

 Rondo Alla Turca lessons Tabs too difficult? Try these video lessons and learn fast
 
                Part A is played like this A1 - A1 - A2 - A1 - A3 - A2 - A1 - A3

[A1]

Guitar 1                                 

e|-----------------------------------------------19-17-16-17-19-17-16-17-20-|
B|------------------------------17---18-17-16-17----------------------------|
G|-16-14-13-14-17---19-17-16-17---------------------------------------------|
D|--------------------------------------------------------------------------|
A|--------------------------------------------------------------------------|
E|--------------------------------------------------------------------------|

e|-17--20--15-17-19--17--15--17--15-17-19--17--15--17--15-17-19--17--15--14--12-|
B|-------------------19--17--19------------19--17--19------------19--17--16-----|
G|------------------------------------------------------------------------------|
D|------------------------------------------------------------------------------|
A|------------------------------------------------------------------------------|
E|------------------------------------------------------------------------------| 

[A2]

e|-12--13--15--15--17-15-13------------12--13--15--15--17-15-13-------|
B|-13--15--17--17-----------17-15------13--15--17--17-----------17-15-|
G|-----------------------------16----------------------------------16-|
D|---------------------------------17---------------------------------|
A|--------------------------------------------------------------------|
E|--------------------------------------------------------------------|

e|--------------------------------------------------------------------|
B|-13--15--17--17--18-17-15------------13--15--17--17--18-17-15-------|
G|-14--16--17--17-----------17-16------14--16--17--17-----------17-16-|
D|-----------------------------18----------------------------------18-|
A|---------------------------------19---------------------------------|
E|--------------------------------------------------------------------|

[A3]

e|-----------------------------------------------19-17-16-17-19-17-16-17-20-|
B|------------------------------17---18-17-16-17----------------------------|
G|-16-14-13-14-17---19-17-16-17---------------------------------------------|
D|--------------------------------------------------------------------------|
A|--------------------------------------------------------------------------|
E|--------------------------------------------------------------------------|

e|-17--19--20--19--17--16--17----------------------------------------------|
B|-----------------------------17--18--------------------------------------|
G|-------------------------------------19--17---17p16h17p16h17p16\14h16p14-|
D|-------------------------------------------------------------------------|
A|-------------------------------------------------------------------------|
E|-------------------------------------------------------------------------|

-------------------------------------------------------------------------------------------------------------|

Part B can also be played on one string with an octave or harmonizer pedal.

[B] 

e|-17--19--21---17--19--21--19--17--16--14--16--17--19--16-----|
B|----------------------------------------------------------17-|
G|-14--16--18---14--16--18--16--14--13--11--13--14--16--13-----|
D|----------------------------------------------------------14-|
A|-------------------------------------------------------------|
E|-------------------------------------------------------------|

e|-17--19--21---17--19--21--19--17--16------19--16------17-|
B|--------------------------------------19----------17-----|
G|-14--16--18---14--16--18--16--14--13------16--13------14-|
D|--------------------------------------16----------14-----|
A|---------------------------------------------------------|
E|---------------------------------------------------------|

 
-------------------------------------------------------------------------------------------------------------|

[C] 

e|-21-22-21-19----19----------------------------------------------------------------19-21-20-21-20-|
B|-------------22----22-21-19-22-21-19-18-19-21-18-------------19-18-19-21-22-21-22----------------|
G|-------------------------------------------------18-20-22-18-------------------------------------|
D|-------------------------------------------------------------------------------------------------|
A|-------------------------------------------------------------------------------------------------|
E|-------------------------------------------------------------------------------------------------|

e|-21-22-21-19----19----------------------------------------------------------------------|
B|-------------22----22-21-19-22-21-19-17-19-21-17-------------16-17-19-16----------------|
G|-------------------------------------------------18-20-21-18-------------17-18-20-17-18-|
D|----------------------------------------------------------------------------------------|
A|----------------------------------------------------------------------------------------|
E|----------------------------------------------------------------------------------------|
 
-------------------------------------------------------------------------------------------------------------|

Part D is played like this: D1, D2, D1, D2

[D1]

e|----------------------------14-16-17-17-16-14-------------------------------14-16-17-18---19-|
B|-17-15-14----------14-15-17-------------------17-17-15-14----------14-15-17------------------|
G|----------16-14-16----------------------------------------16-14-16---------------------------|
D|---------------------------------------------------------------------------------------------|
A|---------------------------------------------------------------------------------------------|
E|---------------------------------------------------------------------------------------------|

e|----------------------------14-16-17-17-16-14-------------------------------------------|
B|-17-15-14----------14-15-17-------------------17-17-15-14----14-17----14----15----------|
G|----------16-14-16----------------------------------------16-------14----16----13-16-14-|
D|----------------------------------------------------------------------------------------|
A|----------------------------------------------------------------------------------------|
E|----------------------------------------------------------------------------------------|

[D2]

e|-21-22-21-19----19----------------------------------------------------------------19-21-20-21-20-|
B|-------------22----22-21-19-22-21-19-18-19-21-18-------------19-18-19-21-22-21-22----------------|
G|-------------------------------------------------18-20-22-18-------------------------------------|
D|-------------------------------------------------------------------------------------------------|
A|-------------------------------------------------------------------------------------------------|
E|-------------------------------------------------------------------------------------------------|

e|-21-19-21-18-22-21-22-21-22-21-22-21-22-21-19----------19-------19-21-------------------|
B|----------------------------------------------22-21-22----21-22-------19-18-19-21-18-19-|
G|----------------------------------------------------------------------------------------|
D|----------------------------------------------------------------------------------------|
A|----------------------------------------------------------------------------------------|
E|----------------------------------------------------------------------------------------|

-------------------------------------------------------------------------------------------------------------|

[E]

Same as B but with a more arpeggio-like feel.

e|----17----19----21-----17----19----21----19----17----16----14----16----17----19----16-------|
B|-----------------------------------------------------------------------------------------17-|
G|-14----16----18-----14----16----18----16----14----13----11----13----14----16----13----------|
D|--------------------------------------------------------------------------------------14----|
A|--------------------------------------------------------------------------------------------|
E|--------------------------------------------------------------------------------------------|

e|----17----19----21-----17----19----21----19----17----16----------19----16----------17-|
B|-----------------------------------------------------------19----------------17-------|
G|-14----16----18-----14----16----18----16----14----13----------16----13----------14----|
D|--------------------------------------------------------16----------------14----------|
A|--------------------------------------------------------------------------------------|
E|--------------------------------------------------------------------------------------|

-------------------------------------------------------------------------------------------------------------|

Part E is played: F1, F2, F3, F2, F4

This is where the outro beginnings. This section was very hard to
transcribe so high up the neck so i dropped it an octave. 

If you do however have a 24 fret guitar, you can 
try to just move up everything 12 frets. You can also
use an octave or harmonizer medal.


You can pick this whole section but finger picking and hybrid picking also works well.

[F1]

e|-9---9---------9---------9--10-9----9-10-9----9-10--10p9--10p9--10p9--10p9---7--12-|
B|------------10--------10---------12--------12---10-----10----10----10----10--9-----|
G|----------9---------9---------------------------11-----9-----9-----9-----9---9-----|
D|-11----11--------11----------------------------------------------------------------|
A|-----------------------------------------------------------------------------------|
E|-----------------------------------------------------------------------------------|

[F2]

e|-9---9---------9---------9--10-9----9-10-9----9-10--10p9---9p7-9p7-9p7-9p7-|
B|------------10--------10---------12--------12---10-----10----9---9---9---9-|
G|----------9---------9---------------------------11-----9-----9---9---9---9-|
D|-11----11--------11--------------------------------------------------------|
A|---------------------------------------------------------------------------|
E|---------------------------------------------------------------------------|

[F3]

e|---------9-9------9------9--10-9----9-10-9----9-10--10p9-10p9-10p9-10p9-----12-|
B|-10---10-------10-----10---------12--------12---------------------------12-----|
G|----9--------9------9----------------------------------------------------------|
D|-------------------------------------------------------------------------------|
A|-------------------------------------------------------------------------------|
E|-------------------------------------------------------------------------------|

[F4]

e|-5---9------12------9----9----12-----5--5-|
B|-5-----10------10-----10---10----10--5--5-|
G|-6---6------9-------6----6----9------6--6-|
D|-7-----7-------7------7----7-----7---7--7-|
A|------------------------------------------|
E|------------------------------------------|            
Submit corrections


        Rondo Alla Turca lessons Hard to play? Try these video lessons and learn fast Rondo Alla Turca lessons
        
↑ Back to top | Tablatures and chords for acoustic guitar and electric guitar, ukulele, drums are parodies/interpretations of the original songs. You may use it for private study, scholarship, research or language learning purposes only