» » »

Wolfgang Amadeus Mozart - Piano Concerto No 20 In D Minor Tabs

Artists:  A B C D E F G H I J K L M N O P Q R S T U V W X Y Z # 

Piano Concerto No 20 In D Minor Tabs

(ver. 1) Click to play this song!
Wolfgang Amadeus Mozart
 Rating:
2.8/5 (26 votes)

 Piano Concerto No 20 In D Minor  lessons Tabs too difficult? Try these video lessons and learn fast
 
                e---------------1--5----------6---|
B-----------3---------3-2-3---8---|
G-------2---------------------9---|
D--0/3----------------------------|
A---------------------------------|
E---------------------------------|

e---------------------------|
B--10/8-8/6/5------------5--|
G-------------7/6/7/6/7--6--|
D---------------(trill)-----|
A---------------------------|
E---------------------------|

e----------1-5--------6--|
B--------3-----3-2-3--8--|
G------2--------------9--|
D--0/3-------------------|
A------------------------|
E------------------------|

e---------------------10--|
B--10/8-8/6/5-------------|
G-------------7-7-7-7-----|
D-------------------------|
A-------------------------|
E-------------------------|

e--8/6-6/5--------------------|
B----------8/6-6/5------------|
G------------------7/6-9/7/6--|
D-----------------------------|
A-----------------------------|
E-----------------------------|

e--------10--8/6-6/5-------5-----|
B--------------------8/6/5-------|
G--7-7-7---------------------7---|
D--------------------------------|
A--------------------------------|
E--------------------------------|
(enter orchestra)            
Submit corrections


        Piano Concerto No 20 In D Minor  lessons Hard to play? Try these video lessons and learn fast Piano Concerto No 20 In D Minor  lessons
        
↑ Back to top | Tablatures and chords for acoustic guitar and electric guitar, ukulele, drums are parodies/interpretations of the original songs. You may use it for private study, scholarship, research or language learning purposes only