Home » W » Wolf Alice »

Wolf Alice - Feeling Myself Chords

Artists:  A B C D E F G H I J K L M N O P Q R S T U V W X Y Z # 

Feeling Myself Chords

(ver. 1) Click to play this song!
Wolf Alice
[Intro]
 
   C
e|---------------------------------------|
B|---1-----1---1---1-1-----1-1-----------|
G|---0----3----0---0-----3-----3---------| x2
D|---------------------------------------|
A|-3---3---------3-----3-----------------|
E|---------------------------------------|
 
   Eb          Dm          Cm
e|-------------------------------------1----------------|
B|---3-----1-----3-----1-----3-----1-----3--3-----------|
G|------3-----------3----------3---------------3--------| x2
D|-1--1--1--1--0--0--0--0-------------------------------|
A|-------------------------3--3--3--3--3--3--3--3-------|
E|------------------------------------------------------|
 
 
[Verse 1]
 
   Cm             Eb              Gm
e|-----------------------------------------------------------------|
B|-------4--------------8---------------3---------------3----------|
G|-----5---5---5------8---8---8-------3---3---3-------3---3---3----|
D|---5-------5------8-------8-------5-------5-------5-------5------|
A|-3--------------6------------------------------------------------|
E|--------------------------------3---------------3----------------|
 
   Ab             Cm              Eb              F
e|-----------------------------------------------------------------|
B|-------4--------------4---------------8---------------1----------|
G|-----5---5---5------5---5---5-------8---8---8-------2---2---2----|
D|---6-------6------5-------5-------8-------8-------3-------3------|
A|----------------3---------------6--------------------------------|
E|-4----------------------------------------------1----------------|
 
   Ab
e|-----------------------------------|
B|-------4--------------4------------|
G|-----5---5---5------5---5---5------|
D|---6-------6------6-------6--------|
A|-----------------------------------|
E|-4--------------4------------------|
 
(Repeat once)
 
 
[Chorus]
 
   C                C                Eb
e|---------------------------------------------------------------------------|
B|-5-----5-----5----6-----6-----6----8-----8-----8----8-----8-----6----------|
G|---5-----5-----5----5-----5-----5----8-----8-----8----8-----8--------------| x4
D|-----5-----5----------5-----5----------8-----8----------8-----8------------|
A|-3-----3-----3----3-----3-----3----6-----6-----6----6-----6----------------|
E|---------------------------------------------------------------------------|
 
 
[Interlude]
 
   Eb          Dm          Cm
e|-------------------------------------1----------------|
B|---3-----1-----3-----1-----3-----1-----3--3-----------|
G|------3-----------3----------3---------------3--------| x2
D|-1--1--1--1--0--0--0--0-------------------------------|
A|-------------------------3--3--3--3--3--3--3--3-------|
E|------------------------------------------------------|
 
 
[Verse 2]
 
  Cm             Eb              Gm
e|-----------------------------------------------------------------|
B|-------4--------------8---------------3---------------3----------|
G|-----5---5---5------8---8---8-------3---3---3-------3---3---3----|
D|---5-------5------8-------8-------5-------5-------5-------5------|
A|-3--------------6------------------------------------------------|
E|--------------------------------3---------------3----------------|
 
   Ab             Cm              Eb              F
e|-----------------------------------------------------------------|
B|-------4--------------4---------------8---------------1----------|
G|-----5---5---5------5---5---5-------8---8---8-------2---2---2----|
D|---6-------6------5-------5-------8-------8-------3-------3------|
A|----------------3---------------6--------------------------------|
E|-4----------------------------------------------1----------------|
 
   Ab
e|-----------------------------------|
B|-------4--------------4------------|
G|-----5---5---5------5---5---5------|
D|---6-------6------6-------6--------|
A|-----------------------------------|
E|-4--------------4------------------|
 
 
   Cm             Eb              Gm
e|-----------------------------------------------------------------|
B|-------4--------------8---------------3---------------3----------|
G|-----5---5---5------8---8---8-------3---3---3-------3---3---3----|
D|---5-------5------8-------8-------5-------5-------5-------5------|
A|-3--------------6------------------------------------------------|
E|--------------------------------3---------------3----------------|
 
 
[Instrumental]
 
 
   Eb             Ab              Cm              Bb
e|-----------------------------------------------------------------|
B|-------8--------------4---------------4---------------3----------|
G|-----8---8---5------5---5---5-------5---5---5-------3---3---3----|
D|---8-------6------6-------6-------5-------5-------3-------3------|
A|-6------------------------------3---------------1----------------|
E|----------------4------------------------------------------------|
 
  Ab             Cm              Eb              Cm
e|-----------------------------------------------------------------|
B|-------4--------------4---------------8---------------4----------|
G|-----5---5---5------5---5---5-------8---8---8-------5---5---5----|
D|---6-------6------5-------5-------8-------8-------5-------5------|
A|----------------3---------------6---------------3----------------|
E|-4---------------------------------------------------------------|
 
 
   Bb
e|-----------------------------------|
B|-------3--------------3------------|
G|-----3---3---3------3---3---3------|
D|---3-------3------3-------3--------|
A|-1--------------1------------------|
E|-----------------------------------|
 
(Repeat once)
 
 
 
Alternatively, this is the violin melody for the instrumental
 
e|------------------------------------------3-------4-3-----------------------|
B|---3------------------------------------4---1---4----4----------------------|
G|-3---0-----3-0-3-0------0---3-0-5-0-3--------------------3--3-0-5-0---------|
D|--------------------------------------------------------------------3-------|
A|-------------------3--------------------------------------------------------|
E|----------------------------------------------------------------------------|
 
 
[Chorus]
 
   C                C                Eb
e|---------------------------------------------------------------------------|
B|-5-----5-----5----6-----6-----6----8-----8-----8----8-----8-----6----------|
G|---5-----5-----5----5-----5-----5----8-----8-----8----8-----8--------------| x6
D|-----5-----5----------5-----5----------8-----8----------8-----8------------|
A|-3-----3-----3----3-----3-----3----6-----6-----6----6-----6----------------|
E|---------------------------------------------------------------------------|
 
 
[Outro]
 
  C
e|---------------------------------------------------------------------------|
B|---1-----1---1---1-1-----1-1-------1-----1--1---1-1--------1-1----1--------|
G|---0----3----0---0-----3-----3-----0---3----0---0--------3-----3-----------|
D|---------------------------------------------------------------------------|
A|-3---3---------3-----3-----------3--3---------3-------3--------------------|
E|---------------------------------------------------------------------------|
            
Submit corrections

↑ Back to top | Tablatures and chords for acoustic guitar and electric guitar, ukulele, drums are parodies/interpretations of the original songs. You may use it for private study, scholarship, research or language learning purposes only