» » »

Wishbone Ash - Get Ready Bass

Artists:  A B C D E F G H I J K L M N O P Q R S T U V W X Y Z # 

Get Ready Bass

(ver. 1) Click to play this song!
Wishbone Ash
 Rating:
4.3/5 (26 votes)

 Get Ready lessons Tabs too difficult? Try these video lessons and learn fast
 
                [Intro]
G|--------------------------|--------------------------|
D|--------------------------|--------------------------|
A|----------------------5-3-|----------------------5-3-|
E|-3-5-5-3-5-3--3-5-5-3-----|-3-5-5-3-5-3--3-5-5-3-----|

[Verse 1]
"I've never met a girl that made me feel...."
G|--------------------------|--------------------------|--------------------------|--------------------------|
D|--------------------------|--------------------------|--------------------------|--------------------------|
A|----------------------5-3-|----------------------5-3-|----------------------5-3-|----------------------5-3-|
E|-3-5-5-3-5-3--3-5-5-3-----|-3-5-5-3-5-3--3-5-5-3-----|-3-5-5-3-5-3--3-5-5-3-----|-3-5-5-3-5-3--3-5-5-3-----|

G|--------------------------|--------------------------|
D|--------------------------|--------------------------|
A|----------------------5-3-|----------------------5-3-|
E|-3-5-5-3-5-3--3-5-5-3-----|-3-5-5-3-5-3--3-5-5-3-----|

[Chorus]
"and I'm bringing you a love that's true..."
G|-----------------|-----------------|-----------------|-------|-----------------|-----------------|---------|
D|-----------------|-----------------|-----------------|-------|-----------------|-----------------|---------|
A|-3-3-3-3-3-3-3-3-|-----------------|-5-5---5---------|-------|-3-3-3-3-3-3-3-3-|-----------------|-5-5---5-|
E|-----------------|-1-1-1-1-1-1-1-1-|-----5---3-3-3-3-|-0-2-3-|-----------------|-1-1-1-1-1-1-1-1-|-----5---|

G|-------------|--------------------------|--------------------------|
D|-------------|--------------------------|--------------------------|
A|-------------|----------------------5-3-|----------------------5-3-|
E|-3--3-4--4-5-|-3-5-5-3-5-3--3-5-5-3-----|-3-5-5-3-5-3--3-5-5-3-----|

[Verse 2]
"you wanna play hide and seek with love...."
G|--------------------------|--------------------------|--------------------------|--------------------------|
D|--------------------------|--------------------------|--------------------------|--------------------------|
A|----------------------5-3-|----------------------5-3-|----------------------5-3-|----------------------5-3-|
E|-3-5-5-3-5-3--3-5-5-3-----|-3-5-5-3-5-3--3-5-5-3-----|-3-5-5-3-5-3--3-5-5-3-----|-3-5-5-3-5-3--3-5-5-3-----|

G|--------------------------|--------------------------|
D|--------------------------|--------------------------|
A|----------------------5-3-|----------------------5-3-|
E|-3-5-5-3-5-3--3-5-5-3-----|-3-5-5-3-5-3--3-5-5-3-----|

[Chorus]
"and I'm bringing you a love that's true..."
G|-----------------|-----------------|-----------------|-------|-----------------|-----------------|---------|
D|-----------------|-----------------|-----------------|-------|-----------------|-----------------|---------|
A|-3-3-3-3-3-3-3-3-|-----------------|-5-5---5---------|-------|-3-3-3-3-3-3-3-3-|-----------------|-5-5---5-|
E|-----------------|-1-1-1-1-1-1-1-1-|-----5---3-3-3-3-|-0-2-3-|-----------------|-1-1-1-1-1-1-1-1-|-----5---|

G|-------------|--------------------------|--------------------------|
D|-------------|--------------------------|--------------------------|
A|-------------|----------------------5-3-|----------------------5-3-|
E|-3--3-4--4-5-|-3-5-5-3-5-3--3-5-5-3-----|-3-5-5-3-5-3--3-5-5-3-----|

[Break]
01:30 - 01:50
G|--------------------------|--------------------------|--------------------------|--------------------------|
D|--------------------------|--------------------------|--------------------------|--------------------------|
A|----------------------5-3-|----------------------5-3-|----------------------5-3-|----------------------5-3-|
E|-3-5-5-3-5-3--3-5-5-3-----|-3-5-5-3-5-3--3-5-5-3-----|-3-5-5-3-5-3--3-5-5-3-----|-3-5-5-3-5-3--3-5-5-3-----|

G|--------------------------|--------------------------|--------------------------|--------------------------|
D|--------------------------|--------------------------|--------------------------|--------------------------|
A|----------------------5-3-|----------------------5-3-|----------------------5-3-|----------------------5-3-|
E|-3-5-5-3-5-3--3-5-5-3-----|-3-5-5-3-5-3--3-5-5-3-----|-3-5-5-3-5-3--3-5-5-3-----|-3-5-5-3-5-3--3-5-5-3-----|

[Chorus]
"and I'm bringing you a love that's true..."
G|-----------------|-----------------|-----------------|-------|-----------------|-----------------|---------|
D|-----------------|-----------------|-----------------|-------|-----------------|-----------------|---------|
A|-3-3-3-3-3-3-3-3-|-----------------|-5-5---5---------|-------|-3-3-3-3-3-3-3-3-|-----------------|-5-5---5-|
E|-----------------|-1-1-1-1-1-1-1-1-|-----5---3-3-3-3-|-0-2-3-|-----------------|-1-1-1-1-1-1-1-1-|-----5---|

G|-------------|--------------------------|--------------------------|
D|-------------|--------------------------|--------------------------|
A|-------------|----------------------5-3-|----------------------5-3-|
E|-3--3-4--4-5-|-3-5-5-3-5-3--3-5-5-3-----|-3-5-5-3-5-3--3-5-5-3-----|

[Bridge]
02:11
G|-----------------|-------------|--------------------------|--------------------------|
D|-----------------|-------------|--------------------------|--------------------------|
A|-5-7---5-7---5-7-|-5-8-8-8-7-5-|----------------------5-3-|----------------------5-3-|
E|-----------------|-------------|-3-5-5-3-5-3--3-5-5-3-----|-3-5-5-3-5-3--3-5-5-3-----|

[Verse 3]
02:25 "all my friends saying won't you do..."
G|--------------------------|--------------------------|--------------------------|--------------------------|
D|--------------------------|--------------------------|--------------------------|--------------------------|
A|----------------------5-3-|----------------------5-3-|----------------------5-3-|----------------------5-3-|
E|-3-5-5-3-5-3--3-5-5-3-----|-3-5-5-3-5-3--3-5-5-3-----|-3-5-5-3-5-3--3-5-5-3-----|-3-5-5-3-5-3--3-5-5-3-----|

G|--------------------------|--------------------------|
D|--------------------------|--------------------------|
A|----------------------5-3-|----------------------5-3-|
E|-3-5-5-3-5-3--3-5-5-3-----|-3-5-5-3-5-3--3-5-5-3-----|

[Chorus]
"and I'm bringing you a love that's true..."
G|-----------------|-----------------|-----------------|-------|-----------------|-----------------|---------|
D|-----------------|-----------------|-----------------|-------|-----------------|-----------------|---------|
A|-3-3-3-3-3-3-3-3-|-----------------|-5-5---5---------|-------|-3-3-3-3-3-3-3-3-|-----------------|-5-5---5-|
E|-----------------|-1-1-1-1-1-1-1-1-|-----5---3-3-3-3-|-0-2-3-|-----------------|-1-1-1-1-1-1-1-1-|-----5---|

G|-------------|--------------------------|--------------------------|
D|-------------|--------------------------|--------------------------|
A|-------------|----------------------5-3-|----------------------5-3-|
E|-3--3-4--4-5-|-3-5-5-3-5-3--3-5-5-3-----|-3-5-5-3-5-3--3-5-5-3-----|

G|--------------------------|--------------------------|-----|
D|--------------------------|--------------------------|-----|
A|----------------------5-3-|----------------------5-3-|-----|
E|-3-5-5-3-5-3--3-5-5-3-----|-3-5-5-3-5-3--3-5-5-3-----|-3-5-|
            
Submit corrections


        Get Ready lessons Hard to play? Try these video lessons and learn fast Get Ready lessons
        
↑ Back to top | Tablatures and chords for acoustic guitar and electric guitar, ukulele, drums are parodies/interpretations of the original songs. You may use it for private study, scholarship, research or language learning purposes only