Home » W » Wire »

Wire - Strange Chords

Artists:  A B C D E F G H I J K L M N O P Q R S T U V W X Y Z # 

Strange Chords

(ver. 1) Click to play this song!
Wire
Intro (0:00)

   G
e-----------------------------------|
b-----------------------------------|
g--------------------------5-5-3-3--|
d--5-5-5-5-5-5-5-5-5-5-5-5-5-5-3-3--|
a--5-5-5-5-5-5-5-5-5-5-5-5-3-3-1-1--|
e--3-3-3-3-3-3-3-3-3-3-3-3----------|



Main riff (0:14)

   G
e--------------------------------|
b--------------------------------|
g--------------------------5--3--| x5
d--5-5-x-x-5-5-x-x-5-5-x-x-5--3--| 
a--5-5-x-x-5-5-x-x-5-5-x-x-3--1--|
e--3-3-x-x-3-3-x-x-3-3-x-x-------|

                           |_____|____This part is not played the last time on verses



Verse (0:39)

G
There's something strange going on tonight
G
There's something going on that's not quite right
G
Joey's nervous and the lights are bright
G
There's something going on that's not quite right



Verse (0:57)

   E
e--------------------------------|
b--------------------------------|
g--------------------------------|
d--2-2-x-x-2-2-x-x-2-2-x-x-7--5--| x4
a--2-2-x-x-2-2-x-x-2-2-x-x-7--5--|
e--0-0-x-x-0-0-x-x-0-0-x-x-5--3--|

                           |_____|____This part is not played the last time on verses

E
There's something going down that wasn't here before
E
Keep your eyes glued to the floor
E
No one's gonna save your life
E
There's something going on that's not quite right



Bridge (1:16)

   G
e--------------------------------|
b--------------------------------|
g--------------------------5--3--|
d--5-5-x-x-5-5-x-x-5-5-x-x-5--3--| x6
a--5-5-x-x-5-5-x-x-5-5-x-x-3--1--|
e--3-3-x-x-3-3-x-x-3-3-x-x-------|
                                 Beware, beware



Verse (1:45)

E
There's something going on that wasn't here before
E
Keep your eyes glued to the floor
E
No one's gonna save your life
E
There's something going on that's not quite right



Bridge (2:03)

   G
e--------------------------------|
b--------------------------------|
g--------------------------5--3--|
d--5-5-x-x-5-5-x-x-5-5-x-x-5--3--| x2
a--5-5-x-x-5-5-x-x-5-5-x-x-3--1--|
e--3-3-x-x-3-3-x-x-3-3-x-x-------|



Verse (2:12)

G
There's something strange going on tonight
G
There's something going on that's not quite right
G
Joey's nervous and the lights are bright
G
There's something going on that's not quite right



Post (2:30)

   G
e--------------------------------|
b--------------------------------|
g--------------------------5--3--|
d--5-5-x-x-5-5-x-x-5-5-x-x-5--3--| x8
a--5-5-x-x-5-5-x-x-5-5-x-x-3--1--|
e--3-3-x-x-3-3-x-x-3-3-x-x-------|

There's somthing, There's somthing, There's somthing,....



Outro (3:09)

   G
e-----------------------------|
b-----------------------------|
g-----------------------------|
d--5-5-x-x-5-5-5-x-5-5-x-x-5--| unregular rhythm on this chord to the end
a--5-5-x-x-5-5-5-x-5-5-x-x-5--|
e--3-3-x-x-3-3-3-x-3-3-x-x-3--|            
Submit corrections

↑ Back to top | Tablatures and chords for acoustic guitar and electric guitar, ukulele, drums are parodies/interpretations of the original songs. You may use it for private study, scholarship, research or language learning purposes only