Home » W » Wire »

Wire - Short Elevated Period Tabs

Artists:  A B C D E F G H I J K L M N O P Q R S T U V W X Y Z # 

Short Elevated Period Tabs

(ver. 1) Click to play this song!
Wire
Standard tuning.


[Intro]
  G1,2
e|----------------|----------------|----------------|----------------|
B|----------------|----------------|----------------|----------------|
G|----------------|----------------|----------------|----------------|
D|9-9-9-9-9-9-9-9-|8-8-8-8-8-8-8-8-|9-9-9-9-9-9-9-9-|8-8-8-8-8-8-8-8-|
A|9-9-9-9-9-9-9-9-|9-9-9-9-9-9-9-9-|9-9-9-9-9-9-9-9-|9-9-9-9-9-9-9-9-|
E|7-7-7-7-7-7-7-7-|7-7-7-7-7-7-7-7-|7-7-7-7-7-7-7-7-|7-7-7-7-7-7-7-7-|

[Verse]

e|----------------|----------------|----------------|----------------|
B|----------------|----------------|----------------|----------------|
G|----------------|----------------|----------------|----------------|
D|9-9-9-9-9-9-9-9-|9-9-9-9-9-9-9-9\|4-4-4-4-4-4-4-4-|4-4-4-4-4-4-4-4/|
A|9-9-9-9-9-9-9-9-|9-9-9-9-9-9-9-9\|4-4-4-4-4-4-4-4-|4-4-4-4-4-4-4-4/|
E|7-7-7-7-7-7-7-7-|7-7-7-7-7-7-7-7\|2-2-2-2-2-2-2-2-|2-2-2-2-2-2-2-2/|

                                                                      X2
e|----------------|----------------|----------------|----------------|
B|----------------|----------------|----------------|----------------|
G|----------------|----------------|----------------|----------------|
D|7-7-7-7-7-7-7-7-|7-7-7-7-7-7-7-7\|2-2-2-2-2-2-2-2-|2-2-2-2-2-2-2-2/|
A|7-7-7-7-7-7-7-7-|7-7-7-7-7-7-7-7\|2-2-2-2-2-2-2-2-|2-2-2-2-2-2-2-2/|
E|5-5-5-5-5-5-5-5-|5-5-5-5-5-5-5-5\|0-0-0-0-0-0-0-0-|0-0-0-0-0-0-0-0/|


e|----------------|----------------|----------------|----------------|
B|----------------|----------------|----------------|----------------|
G|----------------|----------------|----------------|----------------|
D|9-9-9-9-9-9-9-9-|8-8-8-8-8-8-8-8-|9-9-9-9-9-9-9-9-|8-8-8-8-8-8-8-8-|
A|9-9-9-9-9-9-9-9-|9-9-9-9-9-9-9-9-|9-9-9-9-9-9-9-9-|9-9-9-9-9-9-9-9-|
E|7-7-7-7-7-7-7-7-|7-7-7-7-7-7-7-7-|7-7-7-7-7-7-7-7-|7-7-7-7-7-7-7-7-|

[Verse]

e|----------------|----------------|----------------|----------------|
B|----------------|----------------|----------------|----------------|
G|----------------|----------------|----------------|----------------|
D|9-9-9-9-9-9-9-9-|9-9-9-9-9-9-9-9\|4-4-4-4-4-4-4-4-|4-4-4-4-4-4-4-4/|
A|9-9-9-9-9-9-9-9-|9-9-9-9-9-9-9-9\|4-4-4-4-4-4-4-4-|4-4-4-4-4-4-4-4/|
E|7-7-7-7-7-7-7-7-|7-7-7-7-7-7-7-7\|2-2-2-2-2-2-2-2-|2-2-2-2-2-2-2-2/|

                                                                      X2
e|----------------|----------------|----------------|----------------|
B|----------------|----------------|----------------|----------------|
G|----------------|----------------|----------------|----------------|
D|7-7-7-7-7-7-7-7-|7-7-7-7-7-7-7-7\|2-2-2-2-2-2-2-2-|2-2-2-2-2-2-2-2/|
A|7-7-7-7-7-7-7-7-|7-7-7-7-7-7-7-7\|2-2-2-2-2-2-2-2-|2-2-2-2-2-2-2-2/|
E|5-5-5-5-5-5-5-5-|5-5-5-5-5-5-5-5\|0-0-0-0-0-0-0-0-|0-0-0-0-0-0-0-0/|


e|----------------|----------------|----------------|----------------|
B|----------------|----------------|----------------|----------------|
G|----------------|----------------|----------------|----------------|
D|9-9-9-9-9-9-9-9-|8-8-8-8-8-8-8-8-|9-9-9-9-9-9-9-9-|8-8-8-8-8-8-8-8-|
A|9-9-9-9-9-9-9-9-|9-9-9-9-9-9-9-9-|9-9-9-9-9-9-9-9-|9-9-9-9-9-9-9-9-|
E|7-7-7-7-7-7-7-7-|7-7-7-7-7-7-7-7-|7-7-7-7-7-7-7-7-|7-7-7-7-7-7-7-7-|

[Break]
  G1
e|----------------|----------------|----------------|----------------|
B|----------------|----------------|----------------|----------------|
G|----------------|----------------|----------------|----------------|
D|9-9-9-9-9-9-9-9-|9-9-9-9-9-9-9-9\|4-4-4-4-4-4-4-4-|4-4-4-4-4-4-4-4/|
A|9-9-9-9-9-9-9-9-|9-9-9-9-9-9-9-9\|4-4-4-4-4-4-4-4-|4-4-4-4-4-4-4-4/|
E|7-7-7-7-7-7-7-7-|7-7-7-7-7-7-7-7\|2-2-2-2-2-2-2-2-|2-2-2-2-2-2-2-2/|
 |G2
e|----------------|----------------|----------------|----------------|
B|----------------|----------------|----------------|----------------|
G|----------------|----------------|----------------|----------------|
D|9~--------------|----------9---9-|9~-------------\|7--------------/|
A|----------------|----------------|----------------|----------------|
E|----------------|----------------|----------------|----------------|

                                                                      X2 
e|----------------|----------------|----------------|----------------|
B|----------------|----------------|----------------|----------------|
G|----------------|----------------|----------------|----------------|
D|7-7-7-7-7-7-7-7-|7-7-7-7-7-7-7-7\|2-2-2-2-2-2-2-2-|2-2-2-2-2-2-2-2/|
A|7-7-7-7-7-7-7-7-|7-7-7-7-7-7-7-7\|2-2-2-2-2-2-2-2-|2-2-2-2-2-2-2-2/|
E|5-5-5-5-5-5-5-5-|5-5-5-5-5-5-5-5\|0-0-0-0-0-0-0-0-|0-0-0-0-0-0-0-0/|
 |
e|----------------|----------------|----------------|----------------|
B|----------------|----------------|----------------|----------------|
G|----------------|----------------|----------------|----------------|
D|9~--------------|----------9---9-|9~--------------|----------------|
A|----------------|----------------|----------------|----------------|
E|----------------|----------------|----------------|----------------|


e|----------------|----------------|----------------|----------------|
B|----------------|----------------|----------------|----------------|
G|----------------|----------------|----------------|----------------|
D|9-9-9-9-9-9-9-9-|8-8-8-8-8-8-8-8-|9-9-9-9-9-9-9-9-|8-8-8-8-8-8-8-8-|
A|9-9-9-9-9-9-9-9-|9-9-9-9-9-9-9-9-|9-9-9-9-9-9-9-9-|9-9-9-9-9-9-9-9-|
E|7-7-7-7-7-7-7-7-|7-7-7-7-7-7-7-7-|7-7-7-7-7-7-7-7-|7-7-7-7-7-7-7-7-|

[Verse]
  G1,2
e|----------------|----------------|----------------|----------------|
B|----------------|----------------|----------------|----------------|
G|----------------|----------------|----------------|----------------|
D|9-9-9-9-9-9-9-9-|9-9-9-9-9-9-9-9\|4-4-4-4-4-4-4-4-|4-4-4-4-4-4-4-4/|
A|9-9-9-9-9-9-9-9-|9-9-9-9-9-9-9-9\|4-4-4-4-4-4-4-4-|4-4-4-4-4-4-4-4/|
E|7-7-7-7-7-7-7-7-|7-7-7-7-7-7-7-7\|2-2-2-2-2-2-2-2-|2-2-2-2-2-2-2-2/|
 |Keyboard
e|7---------------|----------------|----------------|----------------|
B|7---------------|----------------|7---------------|----------------|
G|----------------|----------------|6---------------|----------------|
D|----------------|----------------|----------------|----------------|
A|----------------|----------------|----------------|----------------|
E|----------------|----------------|----------------|----------------|

                                                                      X2
e|----------------|----------------|----------------|----------------|
B|----------------|----------------|----------------|----------------|
G|----------------|----------------|----------------|----------------|
D|7-7-7-7-7-7-7-7-|7-7-7-7-7-7-7-7\|2-2-2-2-2-2-2-2-|2-2-2-2-2-2-2-2/|
A|7-7-7-7-7-7-7-7-|7-7-7-7-7-7-7-7\|2-2-2-2-2-2-2-2-|2-2-2-2-2-2-2-2/|
E|5-5-5-5-5-5-5-5-|5-5-5-5-5-5-5-5\|0-0-0-0-0-0-0-0-|0-0-0-0-0-0-0-0/|
 |
e|5---------------|----------------|----------------|----------------|
B|5---------------|----------------|5---------------|----------------|
G|----------------|----------------|4---------------|----------------|
D|----------------|----------------|----------------|----------------|
A|----------------|----------------|----------------|----------------|
E|----------------|----------------|----------------|----------------|


e|----------------|----------------|----------------|----------------|----------------|
B|----------------|----------------|----------------|----------------|----------------|
G|----------------|----------------|----------------|----------------|----------------|
D|9-9-9-9-9-9-9-9-|8-8-8-8-8-8-8-8-|9-9-9-9-9-9-9-9-|8-8-8-8-8-8-8-8-|9---------------|
A|9-9-9-9-9-9-9-9-|9-9-9-9-9-9-9-9-|9-9-9-9-9-9-9-9-|9-9-9-9-9-9-9-9-|9---------------|
E|7-7-7-7-7-7-7-7-|7-7-7-7-7-7-7-7-|7-7-7-7-7-7-7-7-|7-7-7-7-7-7-7-7-|7---------------|
 |
e|7---------------|----------------|----------------|----------------|----------------|
B|7---------------|----------------|----------------|----------------|----------------|
G|----------------|----------------|----------------|----------------|----------------|
D|----------------|----------------|----------------|----------------|----------------|
A|----------------|----------------|----------------|----------------|----------------|
E|----------------|----------------|----------------|----------------|----------------|

[Chorus]

e|----------------|----------------|----------------|----------------|
B|----------------|----------------|----------------|----------------|
G|----------------|----------------|----------------|----------------|
D|7-7-7-7-7-7-7-7\|4-4-4-4-4-4-4-4\|2-2-2-2-2-2-2-2-|2-2-2-2-2-2-2-2/|
A|7-7-7-7-7-7-7-7\|4-4-4-4-4-4-4-4\|2-2-2-2-2-2-2-2-|2-2-2-2-2-2-2-2/|
E|5-5-5-5-5-5-5-5\|2-2-2-2-2-2-2-2\|0-0-0-0-0-0-0-0-|0-0-0-0-0-0-0-0/|
 |                                                                    X7
e|5---------------|----------------|----------------|----------------|
B|5---------------|7---------------|5---------------|----------------|
G|----------------|6---------------|4---------------|----------------|
D|----------------|----------------|----------------|----------------|
A|----------------|----------------|----------------|----------------|
E|----------------|----------------|----------------|----------------|

[End]

e|----------------|
B|----------------|
G|----------------|
D|2---------------|
A|2---------------|
E|0---------------|
 |
e|----------------|
B|5---------------|
G|4---------------|
D|----------------|
A|----------------|
E|----------------|            
Submit corrections

↑ Back to top | Tablatures and chords for acoustic guitar and electric guitar, ukulele, drums are parodies/interpretations of the original songs. You may use it for private study, scholarship, research or language learning purposes only