Home » W » Wire »

Wire - Reuters Tabs

Artists:  A B C D E F G H I J K L M N O P Q R S T U V W X Y Z # 

Reuters Tabs

(ver. 1) Click to play this song!
Wire

standard tuning

Intro @ 0:13
e|--7----------------7----------------7----------------7--------------||
B|--5----------------5----------------5----------------5--------------||
G|--------------------------------------------------------------------|| x 2
D|--------------------------------------------------------------------||
A|--------------------------------------------------------------------||
E|--------------------------------------------------------------------||


Verse @ 0:30
e|--1---1-1-1-1-1-1--1---1-1-1-1-1-1--1---1-1-1-1-1-1--1---1-1-1-1-1-1|
B|--3---3-3-3-3-3-3--3---3-3-3-3-3-3--3---3-3-3-3-3-3--3---3-3-3-3-3-3|
G|--3---2-0-2-3-2-0--2---2-0-2-3-2-0--2---2-2-2-2-2-0--2---2-2-2-2-2-0|
D|--0---0-0-0-0-0-0--0---0-0-0-0-0-0--0---0-0-0-0-0-0--0---0-0-0-0-0-0|
A|--------------------------------------------------------------------|
E|--------------------------------------------------------------------|

 Our own correspondent...
e|--1---1-1-1-1-1-1--1---1-1-1-1-1-1--1---1-1-1-1-1-1--1---1-1-1-1----|
B|--3---3-3-3-3-3-3--3---3-3-3-3-3-3--3---3-3-3-3-3-3--3---3-3-3-3-3--|
G|--2---2-2-2-2-2-0--2---2-2-2-2-2-0--2---2-2-2-2-2-0--2---2-2-2-2-2--|
D|--0---0-0-0-0-0-0--0---0-0-0-0-0-0--0---0-0-0-0-0-0--0---0-0-0-0-0--|
A|--------------------------------------------------------------------|
E|--------------------------------------------------------------------|


Change @ 0:47
                       On the border there's movement...
e|--------------------------------------------------------------------|
B|--3-3-3-3-3-3-3-2----------------0--2-----2-------0--2-----2-------0|
G|--2-2-2-2-2-2-2-2----------------0--2-----2-------0--2-----2-------0|
D|--2-2-2-2-2-2-2-2----------------0--2-----2-------0--2-----2-------0|
A|--0-------------0-------------------0----------------0--------------|
E|--------------------------------------------------------------------|


e|--------------------------------------------------------------------|
B|--2-----2-------0--2-----2-------0--2--2--2--2-2--0--2--2-2-2-2-2--0|
G|--2-----2-------0--2-----2-------0--2--2--2--2-2--0--2--2-2-2-2-2--0|
D|--2-----2-------0--2-----2-------0--2--2--2--2-2--0--2--2-2-2-2-2--0|
A|--0----------------0----------------0----------------0--------------|
E|--------------------------------------------------------------------|


Verse @ 1:04
   Prices have risen since the government fell...
e|--1---1-1-1-1-1-1--1---1-1-1-1-1-1--1---1-1-1-1-1-1--1---1-1-1-1-1-1|
B|--3---3-3-3-3-3-3--3---3-3-3-3-3-3--3---3-3-3-3-3-3--3---3-3-3-3-3-3|
G|--2---2-2-2-2-2-0--2---2-2-2-2-2-0--2---2-2-2-2-2-0--2---2-2-2-2-2-0|
D|--0---0-0-0-0-0-0--0---0-0-0-0-0-0--0---0-0-0-0-0-0--0---0-0-0-0-0-0|
A|--------------------------------------------------------------------|
E|--------------------------------------------------------------------|

the climate's unhealthy...
e|--1---1-1-1-1-1-1--1---1-1-1-1-1-1--1---1-1-1-1-1-1--1---1-1-1-1----|
B|--3---3-3-3-3-3-3--3---3-3-3-3-3-3--3---3-3-3-3-3-3--3---3-3-3-3-3--|
G|--2---2-2-2-2-2-0--2---2-2-2-2-2-0--2---2-2-2-2-2-0--2---2-2-2-2-2--|
D|--0---0-0-0-0-0-0--0---0-0-0-0-0-0--0---0-0-0-0-0-0--0---0-0-0-0-0--|
A|--------------------------------------------------------------------|
E|--------------------------------------------------------------------|


Change @ 1:21

e|--------------------------------------------------------------------|
B|--3-3-3-3-3-3-3-2----------------0--2-----2-------0--2-----2-------0|
G|--2-2-2-2-2-2-2-2----------------0--2-----2-------0--2-----2-------0|
D|--2-2-2-2-2-2-2-2----------------0--2-----2-------0--2-----2-------0|
A|--0-------------0-------------------0----------------0--------------|
E|--------------------------------------------------------------------|

                                                                     This
e|--------------------------------------------------------------------|
B|--2-----2---2---0--2-----2--2-2--0--2--2--2--2-2--0--2--2-2-2-2-2--0|
G|--2-----2---2---0--2-----2--2-2--0--2--2--2--2-2--0--2--2-2-2-2-2--0|
D|--2-----2---2---0--2-----2--2-2--0--2--2--2--2-2--0--2--2-2-2-2-2--0|
A|--0----------------0----------------0----------------0--------------|
E|--------------------------------------------------------------------|


Verse @ 1:38
 is your correspondent, running out of tape...
e|--1---1-1-1-1-1-1--1---1-1-1-1-1-1--1---1-1-1-1-1-1--1---1-1-1-1-1-1|
B|--3---3-3-3-3-3-3--3---3-3-3-3-3-3--3---3-3-3-3-3-3--3---3-3-3-3-3-3|
G|--2---2-2-2-2-2-0--2---2-2-2-2-2-0--2---2-2-2-2-2-0--2---2-2-2-2-2-0|
D|--0---0-0-0-0-0-0--0---0-0-0-0-0-0--0---0-0-0-0-0-0--0---0-0-0-0-0-0|
A|--------------------------------------------------------------------|
E|--------------------------------------------------------------------|

    burning, rape...
e|--1---1-1-1-1-1-1--1---1-1-1-1-1-1--1---1-1-1-1-1-1--1---1-1-1-1-1-1|
B|--3---3-3-3-3-3-3--3---3-3-3-3-3-3--3---3-3-3-3-3-3--3---3-3-3-3-3-3|
G|--2---2-2-2-2-2-0--2---2-2-2-2-2-0--2---2-2-2-2-2-0--2---2-2-2-2-2-0|
D|--0---0-0-0-0-0-0--0---0-0-0-0-0-0--0---0-0-0-0-0-0--0---0-0-0-0-0-0|
A|--------------------------------------------------------------------|
E|--------------------------------------------------------------------|

e|--1-1-1-1-1-1-1-1--1-1-1-1-1-1-1-1--1-1-1-1-1-1-1-1--1-1-1-1-1-1-1-0||
B|--3-3-3-3-3-3-3-3--3-3-3-3-3-3-3-3--3-3-3-3-3-3-3-3--3-3-3-3-3-3-3-3||
G|--2-2-2-2-2-2-2-2--2-2-2-2-2-2-2-2--2-2-2-2-2-2-2-2--2-2-2-2-2-2-2-2|| x 3
D|--0-0-0-0-0-0-0-0--0-0-0-0-0-0-0-0--0-0-0-0-0-0-0-0--0-0-0-0-0-0-0-0||
A|--------------------------------------------------------------------||
E|--------------------------------------------------------------------||


Outro @ 2:23

e|--0-0-0-0-0-0-0-0--0-0-0-0-0-0-0-0--0-0-0-0-0-0-0-0--0-0-0-0-0-0-0-5|
B|--3-3-3-3-3-3-3-3--3-3-3-3-3-3-3-3--3-3-3-3-3-3-3-3--3-3-3-3-3-3-3-3|
G|--2-2-2-2-2-2-2-2--2-2-2-2-2-2-2-2--2-2-2-2-2-2-2-2--2-2-2-2-2-2-2-2|
D|--0-0-0-0-0-0-0-0--0-0-0-0-0-0-0-0--0-0-0-0-0-0-0-0--0-0-0-0-0-0-0-0|
A|--------------------------------------------------------------------|
E|--------------------------------------------------------------------|

  @ 2:27

e|--5-5-5-5-5-5-5-5--5-5-5-5-5-5-5-5--5-5-5-5-5-5-5-5--5-5-5-5-5-5-5-5||
B|--3-3-3-3-3-3-3-3--3-3-3-3-3-3-3-3--3-3-3-3-3-3-3-3--3-3-3-3-3-3-3-3||
G|--2-2-2-2-2-2-2-2--2-2-2-2-2-2-2-2--2-2-2-2-2-2-2-2--2-2-2-2-2-2-2-2|| x 2
D|--0-0-0-0-0-0-0-0--0-0-0-0-0-0-0-0--0-0-0-0-0-0-0-0--0-0-0-0-0-0-0-0||
A|--------------------------------------------------------------------||
E|--------------------------------------------------------------------||

  @ 2:40 starts slowing down and picking out the notes of this chord
 
End @ 2:54 on the chord

e|--5-----------------------------------------------------------------|
B|--3-----------------------------------------------------------------|
G|--2-----------------------------------------------------------------|
D|--0-----------------------------------------------------------------|
A|--------------------------------------------------------------------|
E|--------------------------------------------------------------------|

That's it.

Cheers!
- Bennyshambles78 -
            
Submit corrections

↑ Back to top | Tablatures and chords for acoustic guitar and electric guitar, ukulele, drums are parodies/interpretations of the original songs. You may use it for private study, scholarship, research or language learning purposes only