Home » W » Wire »

Wire - Germ Ship Tabs

Artists:  A B C D E F G H I J K L M N O P Q R S T U V W X Y Z # 

Germ Ship Tabs

(ver. 1) Click to play this song!
Wire
[Intro]

e|----------------|
B|----------------|
G|5-5-5-5-5-5-5-5-|
D|5-5-5-5-5-5-5-5-| X4
A|3-3-3-3-3-3-3-3-|
E|----------------|


[Verse]

e|----------------|----------------|
B|----------------|----------------|
G|----------5-5---|----------5-5---|
D|----------5-5---|----------5-5---| X4
A|----------3-3---|----------3-3---|
E|----------------|----------------|
 |
e|----------------|----------------|
B|----------------|----------------|
G|5-5-5-5-5-5-5-5-|5-5-5-5-5-5-5-5-|
D|5-5-5-5-5-5-5-5-|5-5-5-5-5-5-5-5-| X4
A|3-3-3-3-3-3-3-3-|3-3-3-3-3-3-3-3-|
E|----------------|----------------|
 |
G|----------------|----------------|
D|----------------|1-1-1-0-0-0-0-0-|
A|----1-3-3-1-3-3-|----------------| X4
E|1-3-------------|----------------|


[Chorus]

e|----------------|----------------|
B|----------------|----------------|
G|5-5-5-5-5-5-5-5-|5-5-5-5-5-5-5-5-|
D|5-5-5-5-5-5-5-5-|6-6-6-6-6-6-6-6-| X4
A|3-3-3-3-3-3-3-3-|6-6-6-6-6-6-6-6-|
E|----------------|----------------|
 |
e|----------------|----------------|
B|----------------|----------------|
G|5-5-5-5-5-5-5-5-|5-5-5-5-5-5-5-5-|
D|5-5-5-5-5-5-5-5-|5-5-5-5-5-5-5-5-| X4
A|3-3-3-3-3-3-3-3-|3-3-3-3-3-3-3-3-|
E|----------------|----------------|
 |
G|----------------|----------------|
D|----------------|3-3-1-3-3-1-3-3-|
A|----1-3-3-1-3-3-|----------------| X4
E|1-3-------------|----------------|


[Bridge]

e|----------------|----------------|
B|----------------|----------------|
G|5---------5-5-5-|5---------5-5-5-|
D|5---------5-5-5-|5---------5-5-5-| X4
A|3---------3-3-3-|3---------3-3-3-|
E|----------------|----------------|
 |
e|----------------|----------------|
B|----------------|----------------|
G|5-5-5-5-5-5-5-5-|5-5-5-5-5-5-5-5-| Synth part substitute.
D|----------------|----------------| X4
A|----------------|----------------|
E|----------------|----------------|
 |
G|----------------|----------------|
D|----------------|----------------|
A|----------------|----------------| X4
E|----------------|----------------|


[Chorus]

e|----------------|----------------|
B|----------------|----------------|
G|5-5-5-5-5-5-5-5-|5-5-5-5-5-5-5-5-|
D|5-5-5-5-5-5-5-5-|6-6-6-6-6-6-6-6-| X4
A|3-3-3-3-3-3-3-3-|6-6-6-6-6-6-6-6-|
E|----------------|----------------|
 |
e|----------------|----------------|
B|----------------|----------------|
G|5-5-5-5-5-5-5-5-|5-5-5-5-5-5-5-5-|
D|5-5-5-5-5-5-5-5-|5-5-5-5-5-5-5-5-| X4
A|3-3-3-3-3-3-3-3-|3-3-3-3-3-3-3-3-|
E|----------------|----------------|
 |
G|----------------|----------------|
D|----------------|3-3-1-3-3-1-3-3-|
A|----1-3-3-1-3-3-|----------------| X4
E|1-3-------------|----------------|


[Break]

e|----------------|----------------|
B|----------------|----------------|
G|----------------|----------------|
D|----------------|----------------| X4
A|----------------|----------------|
E|----------------|----------------|
 |
e|----------------|----------------|
B|----------------|----------------|
G|5-5-5-5-5-5-5-5-|5-5-5-5-5-5-5-5-|
D|5-5-5-5-5-5-5-5-|5-5-5-5-5-5-5-5-| X4
A|3-3-3-3-3-3-3-3-|3-3-3-3-3-3-3-3-|
E|----------------|----------------|
 |
G|----------------|----------------|
D|----------------|----------------|
A|----------------|----------------| X4
E|----------------|----------------|


[Chorus]

e|----------------|----------------|
B|----------------|----------------|
G|5-5-5-5-5-5-5-5-|5-5-5-5-5-5-5-5-|
D|5-5-5-5-5-5-5-5-|6-6-6-6-6-6-6-6-|
A|3-3-3-3-3-3-3-3-|6-6-6-6-6-6-6-6-|
E|----------------|----------------|
 |
e|----------------|----------------|
B|----------------|----------------|
G|5-5-5-5-5-5-5-5-|5-5-5-5-5-5-5-5-|
D|5-5-5-5-5-5-5-5-|5-5-5-5-5-5-5-5-|
A|3-3-3-3-3-3-3-3-|3-3-3-3-3-3-3-3-|
E|----------------|----------------|
 |
G|----------------|----------------|
D|----------------|3-3-1-3-3-1-3-3-|
A|----1-3-3-1-3-3-|----------------|
E|1-3-------------|----------------|


e|----------------|----------------|
B|----------------|----------------|
G|5-5-5-5-5-5-5-5-|8-8-8-8-8-8-8-8-|
D|5-5-5-5-5-5-5-5-|6-6-6-6-6-6-6-6-|
A|3-3-3-3-3-3-3-3-|8-8-8-8-8-8-8-8-|
E|----------------|----------------|
 |
e|----------------|----------------|
B|----------------|----------------|
G|5-5-5-5-5-5-5-5-|5-5-5-5-5-5-5-5-|
D|5-5-5-5-5-5-5-5-|5-5-5-5-5-5-5-5-|
A|3-3-3-3-3-3-3-3-|3-3-3-3-3-3-3-3-|
E|----------------|----------------|
 |
G|----------------|8-8-8-8-8-8-8---|
D|----------------|----------------|
A|----1-3-3-1-3-3-|----------------|
E|1-3-------------|----------------|


e|----------------|----------------|
B|----------------|----------------|
G|5-5-5-5-5-5-5-5-|5-5-5-5-5-5-5-5-|
D|5-5-5-5-5-5-5-5-|6-6-6-6-6-6-6-6-| X2
A|3-3-3-3-3-3-3-3-|6-6-6-6-6-6-6-6-|
E|----------------|----------------|
 |
e|----------------|----------------|
B|----------------|----------------|
G|5-5-5-5-5-5-5-5-|5-5-5-5-5-5-5-5-|
D|5-5-5-5-5-5-5-5-|5-5-5-5-5-5-5-5-| X2
A|3-3-3-3-3-3-3-3-|3-3-3-3-3-3-3-3-|
E|----------------|----------------|
 |
G|----------------|----------------|
D|----------------|3-3-1-3-3-1-3-3-|
A|----1-3-3-1-3-3-|----------------| X2
E|1-3-------------|----------------|


[End]

e|----------------|
B|----------------|
G|5---------------|
D|5---------------|
A|3---------------|
E|----------------|
 |
e|----------------|
B|----------------|
G|5---------------|
D|5---------------|
A|3---------------|
E|----------------|
 |
G|----------------|
D|----------------|
A|3---------------|
E|----------------|            
Submit corrections

↑ Back to top | Tablatures and chords for acoustic guitar and electric guitar, ukulele, drums are parodies/interpretations of the original songs. You may use it for private study, scholarship, research or language learning purposes only