Home » W » Winnerback Lars »

Winnerback Lars - Pricked Mino X Taehyun Tabs

Artists:  A B C D E F G H I J K L M N O P Q R S T U V W X Y Z # 

Pricked Mino X Taehyun Tabs

(ver. 1) Click to play this song!
Winnerback Lars
 Rating:
4.4/5 (14 votes)
                [Verse]
  Fm7                               Am
e|---------------|-----------------|----------------|--------------------|
B|-------0h1-----|-------0h1p0-----|-------0h1p-----|-------0h1p0--------|
G|-----------2---|-------------2---|---2-------2----|---2---------2------|
D|---2-----------|-----------------|----------------|--------------------|
A|---------------|---2-------------|-0---0--------0-|-0---0---------0----|
E|-1---1-------1-|-1---1---------1-|----------------|--------------------|
  
  Fm7                               Am               Am/G
e|---------------|-----------------|----------------|--------------------|
B|-------0h1-----|-------0h1p0-----|-------0h1p-----|-------0h1p0--------|
G|-----------2---|-------------2---|---2-------2----|---2---------2------|
D|---2-----------|-----------------|----------------|--------------------|
A|---------------|---2-------------|-0---0--------0-|--------------------|
E|-1---1-------1-|-1---1---------1-|----------------|-3---3---------3----|  x2               

[Pre-Chorus]
  F               Dm7               Am               G
e|---------------|-----------------|----------------|--------------------|
B|---------------|-------0h1p0-----|-------0h1p-----|-------0h1p0--------|
G|-------0h2-----|---2-------------|-0---0--------0-|---0---------0------|
D|---3---------3-|-----------------|----------------|-----0---------0----|
A|-----3-----3---|---2-------------|-0---0--------0-|--------------------|
E|-1-------------|-----0---------1-|----------------|-3------------------|

  F               Dm7               Am               
e|---------------|-----------------|----------------|--------------------|
B|---------------|-------0h1p0-----|-------0h1p-----|--------x-?5--------|
G|-------0h2-----|---2-------------|-0---0--------0-|------x---?5--------|
D|---3---------3-|-----------------|----------------|----x---------------|
A|-----3-----3---|---2-------------|-0---0--------0-|--------------------|
E|-1-------------|-----0---------1-|----------------|-3------------------|

[Chorus]
Now I have two different versions for the chorus so will put both but in the end 
it's either strumming the chords which is what the guy in the video did 
or keeping a picking pattern throught the whole song which is something I'm adding
because I thought it might sound cool too lol so you can either strum the chords 
or follow the tab since both sounds good

  F7                               Am               Am/G
e|---------------|-----------------|----------------|--------------------|
B|-------0h1-----|-------0h1p0-----|-------0h1p-----|-------0h1p0--------|
G|-----------2---|-------------2---|---2-------2----|---2---------2------|
D|---2-----------|-----------------|----------------|--------------------|
A|---------------|---2-------------|-0---0--------0-|--------------------|
E|-1---1-------1-|-1---1---------1-|----------------|-3---3---------3----|  x6

[Verse]
  Fm7                               Am
e|---------------|-----------------|----------------|--------------------|
B|-------0h1-----|-------0h1p0-----|-------0h1p-----|-------0h1p0--------|
G|-----------2---|-------------2---|---2-------2----|---2---------2------|
D|---2-----------|-----------------|----------------|--------------------|
A|---------------|---2-------------|-0---0--------0-|-0---0---------0----|
E|-1---1-------1-|-1---1---------1-|----------------|--------------------|
  
  Fm7                               Am               Am/G
e|---------------|-----------------|----------------|--------------------|
B|-------0h1-----|-------0h1p0-----|-------0h1p-----|-------0h1p0--------|
G|-----------2---|-------------2---|---2-------2----|---2---------2------|
D|---2-----------|-----------------|----------------|--------------------|
A|---------------|---2-------------|-0---0--------0-|--------------------|
E|-1---1-------1-|-1---1---------1-|----------------|-3---3---------3----|  x2   

[Pre-Chorus]
  F               Dm7               Am               G
e|---------------|-----------------|----------------|--------------------|
B|---------------|-------0h1p0-----|-------0h1p-----|-------0h1p0--------|
G|-------0h2-----|---2-------------|-0---0--------0-|---0---------0------|
D|---3---------3-|-----------------|----------------|-----0---------0----|
A|-----3-----3---|---2-------------|-0---0--------0-|--------------------|
E|-1-------------|-----0---------1-|----------------|-3------------------|

  F               Dm7               Am               
e|---------------|-----------------|----------------|--------------------|
B|---------------|-------0h1p0-----|-------0h1p-----|--------x-?5--------|
G|-------0h2-----|---2-------------|-0---0--------0-|------x---?5--------|
D|---3---------3-|-----------------|----------------|----x---------------|
A|-----3-----3---|---2-------------|-0---0--------0-|--------------------|
E|-1-------------|-----0---------1-|----------------|-3------------------|

[Chorus]
  F7                               Am               Am/G
e|---------------|-----------------|----------------|--------------------|
B|-------0h1-----|-------0h1p0-----|-------0h1p-----|-------0h1p0--------|
G|-----------2---|-------------2---|---2-------2----|---2---------2------|
D|---2-----------|-----------------|----------------|--------------------|
A|---------------|---2-------------|-0---0--------0-|--------------------|
E|-1---1-------1-|-1---1---------1-|----------------|-3---3---------3----|  x6

[Bridge]
  F7                Dm7                Am7               G
e|-----------------|------------------|-----------------|------------------|
B|-----5-----5-----|-----6-----6------|-----8-----8-----|-----8h7p5--------|
G|---5-----5-----5-|---5-----5-----5--|---5-----5-----5-|---7-------8------|
D|-7-----7-----7---|-7-----7-----7----|-7-----7-----7---|-5-----------7----|
A|-----------------|------------------|-----------------|------------------|
E|-----------------|------------------|-----------------|------------------|

  F7                Dm7                Am7               
e|-----------------|------------------|-----------------|-------5-5h7p-5--------|
B|-----5-----5-----|-----6-----6------|-----8-----8-----|-----8----------8------|
G|---5-----5-----5-|---5-----5-----5--|---5-----5-----5-|---7--------------7----|
D|-7-----7-----7---|-7-----7-----7----|-7-----7-----7---|-5---------------------|
A|-----------------|------------------|-----------------|-----------------------|
E|-----------------|------------------|-----------------|-----------------------|

[Chorus]
So the last chorus is kind of different as it's his time strummed and is also now the same chords than 
the other chorus moved up one fret for the exception of F7 now turned into a Gb7
I personally think that a F#7 would also sound really nice so it's really up to you
  F#7                               A#m7             G#
e|---------------|-----------------|----------------|--------------------|
B|-------0h1-----|-------0h1p0-----|-------0h1p-----|-------0h1p0--------|
G|-----------2---|-------------2---|---2-------2----|---2---------2------|
D|---3-----------|-----------------|----------------|--------------------|
A|---------------|---2-------------|-0---0--------0-|--------------------|
E|-2---2-------1-|-1---1---------1-|----------------|-3---3---------3----|  x4            
Submit corrections

↑ Back to top | Tablatures and chords for acoustic guitar and electric guitar, ukulele, drums are parodies/interpretations of the original songs. You may use it for private study, scholarship, research or language learning purposes only