Home » W » Wingnut Dishwashers Union »

Wingnut Dishwashers Union - Compost Yuppie Scum Tabs

Artists:  A B C D E F G H I J K L M N O P Q R S T U V W X Y Z # 

Compost Yuppie Scum Tabs

(ver. 1) Click to play this song!
Wingnut Dishwashers Union
-----------------------------------------------------------------------------
Compost Yuppie Scum - Wingnut Dishwasher's Union
-----------------------------------------------------------------------------


Chords:These are all regular Chords and NOT power chords.
G
D
Em
C
Strumming/plucking is easy so just listen to the song.

     G     D       Em      C
e|---3-3---2-------0-3-2---0-0-0---|
B|---3-0---3-------0-0-0---1-3-----|
G|---0-0---2-------0-0-0---0-0-----|
D|---0-0---0-2/4/2---2-2-2---2-2---|
A|---2-2-----------2-2-2---3-3-----|
E|---3-3-----------0-0-0-----------|

The second Time around on the D he does a different  part.
Instead of 2/4/2, he plays 2/4/5. I hope that makes sense.

Trumpet Solo
e|---------------------------------------------------------------------|
B|---------------------------------------------------------------------|
G|---------------------------------------------------------------------|
D|---2-0---2-0-2---0-2-5-7-5-2-0-2-0------0--2-0-1-2-5-7-9-10-9-10-9---|
A|---------------------------------------------------------------------|
E|--------------------------------------3------------------------------|

Metal Guitar-It's all power chords from this on.
e|-------------------|
B|-------------------|
G|-------7-------5---|
D|---5---7---2---5---|
A|---5---5---2---3---|
E|---3-------0-------|
            
Submit corrections

↑ Back to top | Tablatures and chords for acoustic guitar and electric guitar, ukulele, drums are parodies/interpretations of the original songs. You may use it for private study, scholarship, research or language learning purposes only