» » »

Winger - Whos The One Bass

Artists:  A B C D E F G H I J K L M N O P Q R S T U V W X Y Z # 

Whos The One Bass

(ver. 1) Click to play this song!
Winger
 Rating:
4.3/5 (9 votes)

 Whos The One lessons Tabs too difficult? Try these video lessons and learn fast
 
                [Chorus] (enter at :54)

G|-----|-----------------|-----------------|-----------------|-----------------|
D|-----|-----------------|-----------------|-----------------|-----------------|
A|-----|-----------------|-2-----4---------|---------------2-|-----2---4-------|
E|-7\--|-0-----2---------|-----------------|-0-----2---------|---4-------------|

G|-----------------|-----------------|-----------------|-----------------|-----------------|
D|-----------------|-----------------|-----------------|-----------------|-----------------|
A|-----------------|-2-----4-----2---|-----------------|-----------------|-----------------|
E|-0-----2---------|---------------4-|-0-----2---------|-5---------------|-(5)-------------|

[Verse]

G|-----------------|-----------------|-----------------|-----------------|
D|-----------------|-----------------|-----------------|-----------------|
A|-2-----4-------2-|-----------------|-2-----4-------2-|-------4---------|
E|-----------------|-------2-2-------|-----------------|---------2-------|

G|-----------------|-----------------|-----------------|-----------------|
D|-----------------|-----------------|-----------------|-----------------|
A|-2-----4-------2-|-------4---------|-2-----4-------2-|-------4---------|
E|-----------------|---------2-------|-----------------|---------2-------|

G|-----------------|-----------------|-----------------|-----------------|
D|-----------------|-----------------|-----------------|-----------------|
A|-2-----4-----4-2-|-----------------|-2-----4-------2-|---2-------------|
E|-----------4-----|-------2-2-----0-|-----------------|-------2-2-----0-|

G|-----------------|-----------------|-----------------|-----------------|
D|-----------------|-----------------|-----------------|-----------------|
A|-2-----4-------2-|-------4---------|-2-----4-----4-2-|-2-----4---------|
E|-----------------|---------2-----0-|-----------4-----|---------2-----0-|

G|-----------------|-----------------|-----------------|-----------------|
D|-----------------|-----------------|-----------------|-----------------|
A|-2-----4-------2-|---2---4---------|-2-----4-------2-|-----------------|
E|-----------------|---------2-----0-|-----------------|-------2-2-------|

[Pre-chorus]

G|-----------------|-----------------|-----------------|-----------------|
D|-----------------|-----------------|-------------1-3-|-4---------------|
A|-4-----------4---|-------2-----6---|-2---------------|-----------------|
E|-------4-------0-|-3---------------|-----------------|-----------------|

G|-----------------|-----------------|-----------------|-----------------|
D|-----------------|-----------------|-----------------|-4---------------|
A|-4-----------4---|-------2-----6---|-2---------------|-----------------|
E|-------4-------0-|-3---------------|-----------------|-------------7\--|

[Chorus]

G|-----------------|-----------------|-----------------|-----------------|
D|-----------------|-----------------|-----------------|-----------------|
A|-----------------|-2-----4---------|---------------2-|-----2---4-------|
E|-0-----2---------|-----------------|-0-----2---------|---4-------------|

G|-----------------|-----------------|-----------------|-----------------|
D|-----------------|-----------------|-----------------|-----------------|
A|-----------------|-2-----4-----2---|---------------2-|-----2---4-------|
E|-0-----2---------|---------------4-|-0-----2---------|---4-------------|

G|-----------------|-----------------|-----------------|-----------------|
D|-----------------|-----------------|-----------------|-----------------|
A|-----------------|-2-----4---------|---------------2-|-----2---4-------|
E|-0-----2---------|-----------------|-0-----2---------|---4-------------|

G|-----------------|-----------------|-----------------|-----------------|-----------------|
D|-----------------|-----------------|-----------------|-----------------|-----------------|
A|-----------------|-2-----4-----2---|-----------------|-----------------|-----------------|
E|-0-----2---------|---------------4-|-0-----2---------|-5---------------|-4b----2-----0---|

[Bass solo]

G|-6-6-6-6-6-6-6-6-|-6-6-6-6-6-9-6-9-|-6-6-6-6-6-6-6-6-|-6-13---11-9\8-6-4-|
D|-----------------|-----------------|-----------------|-------------------|
A|-----------------|-----------------|-----------------|-------------------|
E|-----------------|-----------------|-----------------|-------------------|

G|-4---6-6-----4-4-|---3-------------|-----------------|-----------------|
D|-----------------|-----6-4/8---6---|-6---4-4---------|-----------------|
A|-----------------|-----------------|-----------7-6-4-|-7-6-4-----------|
E|-----------------|-----------------|-----------------|-------7-4b4-2-0-|

[Pre-chorus]

G|-----------------|-----------------|-----------------|-----------------|
D|-----------------|-----------------|-------------1-3-|-4---------------|
A|-4-----------4---|-------2-----6---|-2---------------|---------------2-|
E|-------4-------0-|-3---------------|-----------------|-------------4---|

G|-----------------|-----------------|-----------------|-----------------|
D|-----------------|-----------------|-----------------|-4---------------|
A|-4-----------4---|-------2-----6---|-2---------------|-----------------|
E|-------4-------0-|-3---------------|-----------------|-----------------|

[Chorus]

G|-----------------|-----------------|-----------------|-----------------|
D|-----------------|-----------------|-----------------|-----------------|
A|-----------------|-2-----4---------|---------------2-|-----2---4-------|
E|-0-----2---------|-----------------|-0-----2---------|---4-------------|

G|-----------------|-----------------|-----------------|-----------------|
D|-----------------|-----------------|-----------------|-----------------|
A|-----------------|-2-----4-----2---|---------------2-|-----2---4-------|
E|-0-----2---------|---------------4-|-0-----2---------|---4-------------|

G|-----------------|-----------------|-----------------|-----------------|
D|-----------------|-----------------|-----------------|-----------------|
A|-----------------|-2-----4---------|---------------2-|-----2---4-------|
E|-0-----2---------|-----------------|-0-----2---------|---4-------------|

G|-----------------|-----------------|-----------------|-----------------|-----------------|
D|-----------------|-----------------|-----------------|-----------------|-----------------|
A|-----------------|-2-----4-----2---|-----------------|-----------------|-----------------|
E|-0-----2---------|---------------4-|-0-----2---------|-5---------------|-(5)-------------|

[Outro]

G|-----------------|-----------------|-----------------|-----------------|
D|-----------------|-----------------|-----------------|-----------------|
A|-2-----4-------2-|-------4---------|-2-----4-------2-|---2---4---------|
E|-----------------|---------2-----4-|-----------------|---------2-----4-|

G|-----------------|-----------------|-----------------|-----------------|
D|-----------------|-----------------|-----------------|-----------------|
A|-2-----4-------2-|-----------------|-2-----4-------2-|---2---4---------|
E|-----------------|-------2-2-----4-|-----------------|---------2-------|

G|-----------------|-----------------|-----------------|-----------------|
D|-----------------|-----------------|-----------------|-----------------|
A|-2-----4-------2-|-------4---------|-2-----4-----4-2-|---2-------------|
E|-----------------|---------2-----4-|-----------4-----|-------2-2-----4-|

G|-----------------|-----------------|-----------------|-----------------|
D|-----------------|-----------------|-----------------|-----------------|
A|-2-----4-------2-|---2---4---------|-2-----4-------2-|---2---4---------|
E|-----------------|---------2-----4-|-----------------|---------2-----4-|

G|-----------------|-----------------|-----------------|-----------------|
D|-----------------|-----------------|-----------------|-----------------|
A|-2-----4-----4-2-|---2---4---------|-2-----4-------2-|---2---4---------|
E|-----------4-----|---------2-----4-|-----------------|---------2-----4-|

G|-----------------|-----------------|-----------------|-----------------|
D|-----------------|-----------------|-----------------|-----------------|
A|-2-----4-------2-|---2---4---------|-2-----4-------2-|---2---4---------|
E|-----------------|---------2-----4-|-----------------|---------2-----4-|

G|-----------------|-----------------|-----------------|-----------------|
D|-----------------|-----------------|-----------------|-----------------|
A|-2-----4-------2-|---2---4---------|-2-----4-----4-2-|---2-------------|
E|-----------------|---------2-----4-|-----------4-----|-------2-2-----4-|

G|-----------------|-----------------|-----------------|-----------------|
D|-----------------|-----------------|-----------------|-----------------|
A|-2-----4-------2-|---2-------------|-2-----4-------2-|---2-2-4---------|
E|-----------------|-------2-2-----4-|-----------------|---------2-----4-|

G|-----------------|-----------------|-----------------|-----------------|
D|-----------------|-----------------|-----------------|-----------------|
A|-2-----4-----4-2-|---2-------------|-2-----4-------2-|---2-------------|
E|-----------4-----|-------2-2-----4-|-----------------|-------2-2-----4-|

G|-----------------|-----------------|-----------------|-----------------|
D|-----------------|-----------------|-----------------|-----------------|
A|-2-----4-------2-|---2---4---------|-2-----4-----4-2-|---2-------------|
E|-----------------|---------2-----4-|-----------4-----|-------2-2-----4-|

G|-----------------|-----------------|-----------------|-----------------|
D|-----------------|-----------------|-----------------|-----------------|
A|-2-----4-------2-|---2---4---------|-2-----4-------2-|---2-------------|
E|-----------------|---------2-----4-|-----------------|-------2-2-----4-|

G|-----------------|-----------------|-----------------|-----------------|
D|-----------------|-----------------|-----------------|-----------------|
A|-2-----4-------2-|---2---4---------|-2-----4-------2-|---2---4---------|
E|-----------------|---------2-----4-|-----------------|---------2-----4-|

G|-----------------|-----------------|-----------------|-----------------|
D|-----------------|-----------------|-----------------|-----------------|
A|-2-----4-----4-2-|---2-------------|-2-----4-------2-|---2---4---------|
E|-----------4-----|-------2-2-----4-|-----------------|---------2-----4-|

G|-----------------|-----------------|-----------------|-----------------| (fade)
D|-----------------|-----------------|-----------------|-----------------|
A|-2-----4-------2-|---2---4---------|-2-----4-------2-|---2-------------|
E|-----------------|---------2-----4-|-----------------|-------2-2-----4-|

            
Submit corrections


        Whos The One lessons Hard to play? Try these video lessons and learn fast Whos The One lessons
        
↑ Back to top | Tablatures and chords for acoustic guitar and electric guitar, ukulele, drums are parodies/interpretations of the original songs. You may use it for private study, scholarship, research or language learning purposes only