Home » W » Winger »

Winger - In My Veins Tabs

Artists:  A B C D E F G H I J K L M N O P Q R S T U V W X Y Z # 

In My Veins Tabs

(ver. 1) Click to play this song!
Winger
-------------------------------------------------------------------------------
-------------------------------------------------------------------------------


Tuning: down 1/2 step


Rhythm - left (1st 12 measures, pick up on m.13 of right gtr)

      /6                                                                            
      W                   W                   W                   W                 
D#||-------------------|-------------------|-------------------|-------------------|
A#||-------------------|-------------------|-------------------|-------------------|
F#||-------------------|-------------------|-------------------|--7----------------|
C#||-------------------|--2----------------|--L----------------|--7----------------|
G#||-------------------|--2----------------|--L----------------|--5----------------|
D#||--0----------------|--0----------------|--L----------------|-------------------|


                                                   \6                            
  W                   W                   H        H           W                 
-------------------|--3----------------|--------------------|-------------------|
-------------------|--3----------------|--------------------|-------------------|
--L----------------|--5----------------|--7-----------------|-------------------|
--L----------------|--5----------------|--7-----------------|--2----------------|
--L----------------|--3----------------|--5-----------------|--2----------------|
-------------------|-------------------|-----------0--------|--0----------------|


  W                   W                   W                   W                 
-------------------|--3----------------|-------------------|-------------------|
-------------------|--3----------------|-------------------|-------------------|
-------------------|--0----------------|--2----------------|--L----------------|
--L----------------|--0----------------|--2----------------|--L----------------|
--L----------------|-------------------|--0----------------|--L----------------|
--L----------------|--3----------------|-------------------|-------------------|




Rhythm - right

Intro
                                          |--3--|                 |--3--|  
      W                    S  S S  S S S  S  S  S  S  S S  S S S  S  S  S  
D#||-------------------|--12p-0-5h-7-0-5h-7p-5p-0-12p-0-5h-7-0-5h-7p-5p-0-|
A#||-------------------|--------------------------------------------------|
F#||-------------------|--------------------------------------------------|
C#||-------------------|--------------------------------------------------|
G#||-------------------|--------------------------------------------------|
D#||-------------------|--------------------------------------------------|


                  |--3--|                 |--3--|  
   S  S S  S S S  S  S  S  S  S S  S S S  S  S  S  
--12p-0-5h-7-0-5h-7p-5p-0-12p-0-5h-7-0-5h-7p-5p-0-|
--------------------------------------------------|
--------------------------------------------------|
--------------------------------------------------|
--------------------------------------------------|
--------------------------------------------------|


                  |--3--|                 |--3--|  
   S  S S  S S S  S  S  S  S  S S  S S S  S  S  S  
--12p-0-5h-7-0-5h-7p-5p-0-12p-0-5h-7-0-5h-7p-5p-0-|
--------------------------------------------------|
--------------------------------------------------|
--------------------------------------------------|
--------------------------------------------------|
--------------------------------------------------|


                  |--3--|                 |--3--|  
   S  S S  S S S  S  S  S  S  S S  S S S  S  S  S  
--12p-0-5h-7-0-5h-7p-5p-0-12p-0-5h-7-0-5h-7p-5p-0-|
--------------------------------------------------|
--------------------------------------------------|
--------------------------------------------------|
--------------------------------------------------|
--------------------------------------------------|


                  |--3--|                 |--3--|  
   S  S S  S S S  S  S  S  S  S S  S S S  S  S  S  
--12p-0-5h-7-0-5h-7p-5p-0-12p-0-5h-7-0-5h-7p-5p-0-|
--------------------------------------------------|
--------------------------------------------------|
--------------------------------------------------|
--------------------------------------------------|
--------------------------------------------------|


                  |--3--|                 |--3--|  
   S  S S  S S S  S  S  S  S  S S  S S S  S  S  S  
--12p-0-5h-7-0-5h-7p-5p-0-12p-0-5h-7-0-5h-7p-5p-0-|
--------------------------------------------------|
--------------------------------------------------|
--------------------------------------------------|
--------------------------------------------------|
--------------------------------------------------|


                  |--3--|                 |--3--|  
   S  S S  S S S  S  S  S  S  S S  S S S  S  S  S  
--12p-0-5h-7-0-5h-7p-5p-0-12p-0-5h-7-0-5h-7p-5p-0-|
--------------------------------------------------|
--------------------------------------------------|
--------------------------------------------------|
--------------------------------------------------|
--------------------------------------------------|


                  |--3--|                 |--3--|  
   S  S S  S S S  S  S  S  S  S S  S S S  S  S  S  
--12p-0-5h-7-0-5h-7p-5p-0-12p-0-5h-7-0-5h-7p-5p-0-|
--------------------------------------------------|
--------------------------------------------------|
--------------------------------------------------|
--------------------------------------------------|
--------------------------------------------------|


                  |--3--|                 |--3--|  
   S  S S  S S S  S  S  S  S  S S  S S S  S  S  S  
--12p-0-5h-7-0-5h-7p-5p-0-12p-0-5h-7-0-5h-7p-5p-0-|
--------------------------------------------------|
--------------------------------------------------|
--------------------------------------------------|
--------------------------------------------------|
--------------------------------------------------|


                  |--3--|                 |--3--|  
   S  S S  S S S  S  S  S  S  S S  S S S  S  S  S  
--12p-0-5h-7-0-5h-7p-5p-0-12p-0-5h-7-0-5h-7p-5p-0-|
--------------------------------------------------|
--------------------------------------------------|
--------------------------------------------------|
--------------------------------------------------|
--------------------------------------------------|


                  |--3--|                 |--3--|                                   
   S  S S  S S S  S  S  S  S  S S  S S S  S  S  S    S S S S S S  S S S S E   Q     
--12p-0-5h-7-0-5h-7p-5p-0-12p-0-5h-7-0-5h-7p-5p-0-|--------------------------------|
--------------------------------------------------|--------------------------------|
--------------------------------------------------|--------------------------------|
--------------------------------------------------|------5--------------------3----|
--------------------------------------------------|----5---7---7p-5---5-------3----|
--------------------------------------------------|--7--------------7---7-7\--1----|


Verse 1
  H         H           Q    S S S S S E.  Q       Q    Q    Q     Q      
---------------------|--------------------------|------------------------|
---------------------|--------------------------|------------------------|
--9\-----------------|-------x-x-x-7-L----------|------------------------|
--9\-----------------|-------x-x-x-7-L-7---7----|--2---------------------|
--7\-----------------|-------x-x-x-5-L-7---7----|--2---------------------|
---------------------|-----------------5---5----|--0--------------12\----|


             PM PM PM PM PM PM                                                                 
  E  E  E.   S  S  S  E  E  E      H          E   S  S E   S  S    S S S  S E  S S S E.  Q     
-------------------------------|--------------------------------|-----------------------------|
-------------------------------|-----------------15-15----10-10-|-----------------------------|
-------------------------------|--12~---------x--14-14-----9--9-|--x-x------9----7-L----------|
-------------------------------|--12~---------x--12-12-----7--7-|--x-x-9p-7-9----7-L-7---7----|
--7--6--5~---------------------|--------------------------------|--x-x-7--L-7----5-L-7---7----|
-------------3--L--3--2--1--0--|--------------------------------|--------------------5---5----|


       PM PM PM PM PM PM               PM PM PM PM PM PM                           
  Q    E  E  E  E  E  E     E  E  E.   S  S  S  E  E  E     Q    E  E  Q    E  E   
-------------------------|-------------------------------|------------------------|
-------------------------|-------------------------------|------------------------|
-------------------------|-------------------------------|--7-------2--L----------|
--2----------------------|-------------------------------|--7----x--2--L-------2--|
--2----------------------|--7--6--5~---------------------|--5----x--0--L-------2--|
--0----0--0--0--0--0--0--|-------------3--L--3--2--1--0--|------------------3--0--|


          PM        PM                                   PM PM        PM PM PM  
  Q    E  E  E   E  E  E     E  E  E  E  H            E  E  E  E   E  E  E  E   
--------------------------|-----------3------------|---------------------------|
--------------------------|--------------3~--------|---------------------------|
--------------------------|--------5---------------|---------------------------|
--L----L------------------|-----5------------------|---------------------------|
--L----L-----0h--1--2--3--|--L---------------------|--5--7--6--3~--L-----------|
--L----L--4---------------|------------------------|------------------5--6--7--|


Chorus 1
          PM PM                 PM                         PM      PM PM               
  E  E  S S  E  E.   S E  E     E  E  S E.  E.  S E  E     E  E  S S  E  E.   S E  E   
-----------------------------|--------------------------|-----------------------------|
-----------------------------|--------------------------|-----------------------------|
-----------------------------|--------------------------|-----------------------------|
-----------------------------|--------------------------|-----------------------------|
-----------------------------|-----------------------5--|-----------------------------|
--L--3--L-0--3--4~---5-L--7--|--0--4--L-5---6---7-L-----|--0--3--L-0--3--4~---5-L--7--|


  PM                         PM       PM PM                 PM                       
  E  E  S E.  E.  S E  E     E  E   S S  E  E.   S E  E     E  E  S E.  E.  S E  E   
--------------------------|------------------------------|--------------------------|
--------------------------|------------------------------|--------------------------|
--------------------------|------------------------------|--------------------------|
--------------------------|------------------------------|--------------------------|
-----------------------5--|------------------------------|-----------------------5--|
--0--4--L-5---6---7-L-----|--0--3b--L-0--3--4~---5-5--7--|--0--4--L-5---6---7-L-----|


                                                         Verse 2
  PM      PM PM                 PM                                               
  E  E  S S  E  E.   S E  E     E  E  S E.  E.  S E  E     E  E   Q    H         
-----------------------------|--------------------------|-----------------------|
-----------------------------|--------------------------|-----------------------|
-----------------------------|--------------------------|--9--L\----------------|
-----------------------------|--------------------------|--9--L\----------------|
-----------------------------|-----------------------5--|--7--L\----------------|
--0--3--L-0--3--4~---5-L--7--|--0--4--L-5---6---7-L-----|-----------------------|


       ^ v ^                                                  PM   PM PM PM PM  
  Q    S S S S S E.  Q       Q    Q    H           E  E  E.   S  S S  E  E  E   
--------------------------|---------------------|------------------------------|
--------------------------|---------------------|------------------------------|
-------x-x-x-7-L----------|---------------------|------------------------------|
-------x-x-x-7-L-7---7----|--2------------------|------------------------------|
-------x-x-x-5-L-7---7----|--2------------------|--7--6--5~--------------------|
-----------------5---5----|--0------------------|-------------3----3--2--1--0--|


                                                                         PM PM PM PM PM PM  
   H          S  S  S  S S S  S  S    S S S  S E  S S S E.  Q       Q    E  E  E  E  E  E   
-----------------------------------|-----------------------------|-------------------------|
-------------------15-15-----10-10-|-----------------------------|-------------------------|
--12~---------x--x-14-14-x-x--9--9-|--x-x------9----7-L----------|-------------------------|
--12~---------x--x-12-12-x-x--7--7-|--x-x-7h-9-9----7-L-7---L----|--2----------------------|
-----------------------------------|--x-x-7--L-7----5-L-7---L----|--2----------------------|
-----------------------------------|--------------------5---L----|--0----0--0--0--0--0--0--|


            PM PM PM PM PM PM                    PM               PM PM PM PM     
  E  E  E.  S  S  S  E  E  E     Q    E  E  Q    E  E     Q    E  E  E  E  E  E   
------------------------------|------------------------|-------------------------|
------------------------------|------------------------|-------------------------|
------------------------------|--7-------2--L----------|-------------------------|
------------------------------|--7-------2--L-------2--|--L----2-----------------|
--7--6--5---------------------|--5-------0--L-------2--|--L----2-----0--1--2--3--|
------------3--L--3--2--1--0--|------------------3--0--|--L----0--4--------------|


                                                      Chorus 2
                               PM PM        PM PM                PM PM              
  E  E  E  E  Q     Q       E  E  E  E   E  E  E  E     E   E  S S  E  E.  S E  E   
-----3-------------------|--x------------------------|-----------------------------|
--------3-----3~---------|--x------------------------|-----------------------------|
-----------5-------------|--x------------------------|-----------------------------|
-------------------------|---------------------------|-----------------------------|
--L-----------------3----|--5--7--6--3~--L-----------|-----------------------------|
-------------------------|------------------5--6--7--|--L\--3--L-0--3--4---5-L--7--|


  PM                         PM      PM PM                PM                       
  E  E  S E.  E.  S E  E     E  E  S S  E  E.  S E  E     E  E  S E.  E.  S E  E   
--------------------------|----------------------------|--------------------------|
--------------------------|----------------------------|--------------------------|
--------------------------|----------------------------|--------------------------|
--------------------------|----------------------------|--------------------------|
-----------------------5--|----------------------------|-----------------------5--|
--0--4--L-5---6---7-L-----|--0--3--L-0--3--4---5-L--7--|--0--4--L-5---6---7-L-----|


  PM      PM PM                PM                         PM      PM PM              
  E  E  S S  E  E.  S E  E     E  E  S E.  E.  S E  E     E  E  S S  E  E.  S E  E   
----------------------------|--------------------------|----------------------------|
----------------------------|--------------------------|----------------------------|
----------------------------|--------------------------|----------------------------|
----------------------------|--------------------------|----------------------------|
----------------------------|-----------------------5--|----------------------------|
--0--3--L-0--3--4---5-L--7--|--0--4--L-5---6---7-L-----|--0--3--L-0--3--4---5-L--7--|


                           Guitar Solo
  PM                                     PM PM PM                            PM PM      
  E  E  S E.  E.  S E  E     H         S S  S  S  S E.      E  E  S S E  E.  S  E  S S  
--------------------------|------------------------------|-----------------------------|
--------------------------|------------------------------|-----------------------------|
--------------------------|--9\--------------------------|-----------------------------|
--------------------------|--9\-------------------5------|--2--2------5--L------5--7-7-|
-----------------------5--|--7\-------------5--7----7~---|--2--2------5--L------5--7-7-|
--0--4--L-5---6---7-L-----|--------------7---------------|--0--0--x-x-3--L---0--3--5-5-|


     PM                             PM PM PM PM PM PM                PM PM PM         
  E  E  Q    H           E  E  E.   S  S  S  E  E  E     Q    Q    S S  S  S  S E.    
----------------------|-------------------------------|------------------------------|
----------------------|-------------------------------|------------------------------|
----------------------|-------------------------------|------------------------------|
--2--2----------------|-------------------------------|--2--------------------5------|
--2--2----------------|--7--6--5~---------------------|--2----x---------5--7----7~---|
--0--0----------------|-------------3--L--3--2--1--0--|--0----x------7---------------|


                  PM PM       PM                                PM PM PM PM PM PM  
  E  E  E  E  E.  S  E  E     E  E  Q    H           E  E  E.   S  S  S  E  E  E   
---------------------------|----------------------|-------------------------------|
---------------------------|----------------------|-------------------------------|
---------------------------|----------------------|-------------------------------|
--2--2-----5--L---------7--|--2--2----------------|-------------------------------|
--2--2--x--5--L---------7--|--2--2----------------|--7--6--5~---------------------|
--0--0--x--3--L---0--3--5--|--0--0----------------|-------------3--L--3--2--1--0--|


Verse 3
                                   PM        PM                                                  
  Q    E  E  Q    E  E     Q    E  E  E   E  E  E     H.           E  E     H.            E  E   
------------------------|--------------------------|---------------------|----------------------|
------------------------|--------------------------|---------------------|----------------------|
--7-------2--L----------|--------------------------|---------------------|----------------------|
--7-------2--L-------2--|--L----2------------------|---------------------|----------------------|
--5-------0--L-------2--|--L----2-----0h--1--2--3--|--L------------L--5--|--L~------------L-----|
------------------3--0--|--L----0--4---------------|---------------------|-------------------0--|


                                            Chorus 3
                                                      PM PM                PM                       
  W                   H        E  E  E  E     E  E  S S  E  E.  S E  E     E  E  S E.  E.  S E  E   
-------------------|-----------------------|----------------------------|--------------------------|
-------------------|-----------------------|----------------------------|--------------------------|
-------------------|-----------------------|----------------------------|--------------------------|
-------------------|-----------------------|----------------------------|--------------------------|
-------------------|-----------------------|----------------------------|-----------------------5--|
--L----------------|--L--------L--5--6--7--|--L--3--L-0--3--4---5-L--7--|--0--4--L-5---6---7-L-----|


  PM      PM PM                PM                         PM      PM PM              
  E  E  S S  E  E.  S E  E     E  E  S E.  E.  S E  E     E  E  S S  E  E.  S E  E   
----------------------------|--------------------------|----------------------------|
----------------------------|--------------------------|----------------------------|
----------------------------|--------------------------|----------------------------|
----------------------------|--------------------------|----------------------------|
----------------------------|-----------------------5--|----------------------------|
--0--3--L-0--3--4---5-L--7--|--0--4--L-5---6---7-L-----|--0--3--L-0--3--4---5-L--7--|


  PM                         PM      PM PM                PM                       
  E  E  S E.  E.  S E  E     E  E  S S  E  E.  S E  E     E  E  S E.  E.  S E  E   
--------------------------|----------------------------|--------------------------|
--------------------------|----------------------------|--------------------------|
--------------------------|----------------------------|--------------------------|
--------------------------|----------------------------|--------------------------|
-----------------------5--|----------------------------|-----------------------5--|
--0--4--L-5---6---7-L-----|--0--3--L-0--3--4---5-L--7--|--0--4--L-5---6---7-L-----|


                              PM                                                  
  E  E  S S E  E.  S E  E     E  E  S E.  E.  S E  E     E.  S E  E  E.  S E  E   
---------------------------|--------------------------|--------------------------|
---------------------------|--------------------------|--------------------------|
---------------------------|--------------------------|--------------------------|
----------5----------------|--------------------------|--------------------------|
-----7--L---5--------------|-----------------------5--|--4---5-L---------5-L--7--|
---------------4---5-L--7--|--0--4--L-5---6---7-L-----|-----------6--7-----------|


  E.  S E  E  E.  S E  E     E.   S E  E  E.   S  E   E      E.   S  E   E    E.   S   E     E    
--------------------------|------------------------------|---------------------------------------|
--------------------------|------------------------------|------------------------17---L----17---|
-----------------------7--|--6~---7-L----------------11--|-------14--L--13s--19---19b--Lpb--19b--|
-----------7--6---9-L-----|------------8--9---12--L------|--12-----------------------------------|
--5---9-L-----------------|------------------------------|---------------------------------------|
--------------------------|------------------------------|---------------------------------------|


  PM      PM PM                PM                                                         
  E  E  S S  E  E.  S E  E     E  E  S E.  E.  S E  E     S S S S S S S S S  S E  S S E   
----------------------------|--------------------------|---------------------------------|
----------------------------|--------------------------|---------------------------------|
----------------------------|--------------------------|---------------------------------|
----------------------------|--------------------------|----------------------------5----|
----------------------------|-----------------------5--|--7-5------------------5--5---7--|
--0--3--L-0--3--4---5-L--7--|--0--4--L-5---6---7-L-----|------7-5---3---3-5h-7-----------|


  W                   H        H            W                   W                  
-------------------|---------------------|-------------------|-------------------||
-------------------|---------------------|-------------------|-------------------||
-------------------|-----------9\--------|-------------------|-------------------||
-------------------|-----------9\--------|-------------------|-------------------||
--L----------------|--L--------7\--------|-------------------|-------------------||
-------------------|---------------------|-------------------|-------------------||




Lead (m.50)

  W                   W                   W                   H        Q    E   S   S  
-------------------|-------------------|-------------------|--------------------------|
-------------------|-------------------|-------------------|-------------------17p-15-|
-------------------|-------------------|-------------------|--------------------------|
-------------------|-------------------|-------------------|--------------------------|
-------------------|-------------------|-------------------|--------------------------|
-------------------|-------------------|-------------------|--------------------------|


                                   |-----3-----|   |---3---|   |---3---|   |---3---|   
   Q      S   S  E   H             E    E      E   E   E   E   E   E   E   E   E   E   
-------------------------------|------------------------------------------------------|
--17b-----Lp-15-17---L~--------|--15b--15pbr--15--15--14--13--12----------------------|
-------------------------------|----------------------------------15--14--12------14--|
-------------------------------|----------------------------------------------14------|
-------------------------------|------------------------------------------------------|
-------------------------------|------------------------------------------------------|


   W                                                                       
   H         E     E   Q         Q      S    S    S  S   S     E.    Q     
-----------------------------|-------------------12-15b--Lpbr-15b----L----|
-----------------------------|--15~-----Lpb-15pb--------------------------|
--12-------------/14--12~----|--------------------------------------------|
------------14\--------------|--------------------------------------------|
-----------------------------|--------------------------------------------|
-----------------------------|--------------------------------------------|


  E   T   T  T  T  T  T  T   T  S  T   T  T   T  T  T  S  S  S.  T  T     T  S   
-----17p-15-12-12--------------12-15h-17-15p-12-12-12-15-15-----12--------------|
------------------17-17-15p-12------------------------------15b----15pbr-12-15b-|
--------------------------------------------------------------------------------|
--------------------------------------------------------------------------------|
--------------------------------------------------------------------------------|
--------------------------------------------------------------------------------|


      S   S   S  T   T  S    S  E    Q       Q      
--13g17p-15p-12-15h-17--Lbr--L--Lb---L~-----17\----|
---------------------------------------------------|
---------------------------------------------------|
--------------------------------------------(x)----|
---------------------------------------------------|
---------------------------------------------------|


                                                PM PM PM 
   |--3--|  |--3--|  |--3--|  |--3--|                    
   S  S  S  S  S  S  S  S  S  S  S  S  Q     S  S  S  S  
--------------------------------------------------------|
--15-15-15-15-15-15-15-15-15-15-15-15-15\---------------|
--16-16-16-16-16-16-16-16-16-16-16-16-16\---------------|
--------------------------------------------------------|
-----------------------------------------------------12-|
---------------------------------------------x-12-15----|


   S  S  T   T  S  S  S   S  S   S  S  S   S  S   S  S  S      H          E   E   E   E   
----------------------------------------------------12-15b-|---L~---------L-----------0--|
-------------------------------------------------12--------|--------------------------0--|
------------------12--------12b--L-12--------14b-----------|----------------------7b-----|
-----12-14p-12-------12h-14-----------14p-12---------------|-----------------------------|
--14-----------14------------------------------------------|-----------------------------|
-----------------------------------------------------------|-----------------15\---------|


               pick scr*pe                                                                    
  H        E   E           Q        W                   W                   W                 
---------------------------------|-------------------|-------------------|-------------------|
---------------------------------|-------------------|-------------------|-------------------|
---------------x-----------x\----|-------------------|-------------------|-------------------|
---------------x-----------x\----|-------------------|-------------------|-------------------|
---------------------------------|-------------------|-------------------|-------------------|
---------------------------------|-------------------|-------------------|-------------------|


m.82
  W                   W                   H        Q    E   E    
-------------------|-------------------|------------------------|
-------------------|-------------------|-------------------15b--|
-------------------|-------------------|------------------------|
-------------------|-------------------|------------------------|
-------------------|-------------------|------------------------|
-------------------|-------------------|------------------------|


                         |-3-|  |---3---|                        |--3--| |-3-|                   
   Q      S     S  S  S  E   S  S   S   S  T   T  S  S     S     S  S  S E   S   Q     H         
-------------------------------------------------------------|----------------------------------|
---L~----15pbr--L-12-15-15--15-------------------------------|----------------------------------|
-------------------------------16p-15h-16-15p-14----14-12g13-|----------------------------------|
-------------------------------------------------17----------|--12----12------------------------|
-------------------------------------------------------------|-----14-------12b-10b-------------|
-------------------------------------------------------------|----------------------------------|



Acoustic Guitar

m.64
  E  E  E  E  E   E  Q       E  E  E  E  E  E  Q       E  E  E  E  E  E  E  E   
-----3--------------------|-----0-------------------|-----------5--------5--3--|
--------3---------3--L----|--------0----------------|--------7--------5-----5--|
-----------5--L~----------|-----------5--L--5--L----|-----7--------6--------5--|
--------------------------|-------------------------|--------------------------|
--------------------------|-------------------------|--------------------------|
--------------------------|-------------------------|--------------------------|


  H        E  E  Q       W                   W                   W                 
--L--------L----------|-------------------|-------------------|-------------------|
--L--------L----------|-------------------|-------------------|-------------------|
--L--------L----------|-------------------|-------------------|-------------------|
----------------------|-------------------|-------------------|-------------------|
----------------------|-------------------|-------------------|-------------------|
----------------------|-------------------|-------------------|-------------------|


Duration Legend
---------------
W - whole
H - half
Q - quarter
E - 8th
S - 16th
T - 32nd
X - 64th
. - note dotted
|-n-|  - n-tuplets


Tablature Legend
----------------
L - tied note
x - dead note
g - grace note
(n) - ghost note
> - accentuded note
NH - natural harmonic
AH - artificial harmonic
TH - tapped harmonic
SH - semi harmonic
PH - pitch harmonic
h - hammer on
p - pull off
b - bend
br - bendRelease
pb - preBend
pbr - preBendRelease
brb - bendReleaseBend
\n/ - tremolo bar dip
\n - tremolo bar dive
-/n - tremolo bar Release up
/n\ - tremolo bar inverted dip
/n - tremolo bar return
-\n - tremolo bar Release down
S - shift slide
s - legato slide
/ -  slide into from below or out of upwards
\ -  slide into from above or out of downwards
~ - vibrato
W - wide vibrato
tr - trill
TP - tremolo picking
T - tapping
S - slap
P - pop
< - fade in
^ - brush up
v - brush down
            
Submit corrections

↑ Back to top | Tablatures and chords for acoustic guitar and electric guitar, ukulele, drums are parodies/interpretations of the original songs. You may use it for private study, scholarship, research or language learning purposes only