Home » W » Winger »

Winger - Hell To Pay Tabs

Artists:  A B C D E F G H I J K L M N O P Q R S T U V W X Y Z # 

Hell To Pay Tabs

(ver. 1) Click to play this song!
Winger
-------------------------------------------------------------------------------
-------------------------------------------------------------------------------


Tuning: 1/2 step down



Rhythm - left

      Intro
      Q    E  E  E  E  E  E     Q     E  E  Q     E  E     Q    E  E  E  E  E  E   
D#||-------------------------|--------------------------|-------------------------|
A#||-------------------------|--------------------------|-------------------------|
F#||-------------------------|--------------------------|-------------------------|
C#||--2----L-----------------|--------------------------|--2----2-----------------|
G#||--0----L--3--L--0-----0--|-----------------------3--|--0----0--3--L--0-----0--|
D#||-------------------3-----|--2~----2--1--L~----0-----|-------------------3-----|


  Q    E   E  Q     Q       Q    E  E  E  E  E  E     Q     E  E  Q     E  E   
-------------------------|-------------------------|--------------------------|
-------------------------|-------------------------|--------------------------|
-------------------------|-------------------------|--------------------------|
-------------------------|--2----L-----------------|--------------------------|
-------------------------|--0----L--3--L--0-----0--|-----------------------3--|
--2----2~--1--L~---------|-------------------3-----|--2~----2--1--L~----0-----|


                               \6 /6                                      
  Q    E  E  E  E  E  E     E  E  H.              Q    E  E  E  E  E  E   
-------------------------|---------------------|-------------------------|
-------------------------|---------------------|-------------------------|
-------------------------|---------------------|-------------------------|
--2----2--------------2--|---------------------|--2----L-----------------|
--0----0--3--L--0-----0--|---------------------|--0----L--3--L--0-----0--|
-------------------3-----|-----0--L------------|-------------------3-----|


  Q     E  E  Q     E  E     Q    E  E  E  E  E  E     Q    E   E  Q     Q     
--------------------------|-------------------------|-------------------------|
--------------------------|-------------------------|-------------------------|
--------------------------|-------------------------|-------------------------|
--------------------------|--2----2-----------------|-------------------------|
-----------------------3--|--0----0--3--L--0-----0--|-------------------------|
--2~----2--1--L~----0-----|-------------------3-----|--2----2~--1--L~---------|


  Q    E  E  E  E  E  E     Q     E  E  Q     E  E     Q    E  E  E  E  E  E     W                 
-------------------------|--------------------------|-------------------------|-------------------|
-------------------------|--------------------------|-------------------------|-------------------|
-------------------------|--------------------------|-------------------------|-------------------|
--2----L-----------------|--------------------------|--2----2--------------2--|-------------------|
--0----L--3--L--0-----0--|-----------------------3--|--0----0--3--L--0-----0--|-------------------|
-------------------3-----|--2~----2--1--L~----0-----|-------------------3-----|-------------------|

Verse 1
                     PM                                                                  PM        
  Q    E  E  Q    E  E     Q    E  E  H           Q    E  E  H           E  E  E  E  S S E  E  E   
----------3-------------|--3----L--------------|----------3-----------|---------------------------|
----------3-------------|--3----L--3-----------|----------3-----------|---------------------------|
----------0-------------|--0----L--2-----------|----------0-----------|---------------------------|
--2----L--0-------------|--0----L--0-----------|--2----L--0-----------|---------------------5-----|
--0----L----------------|----------------------|--0----L--------------|-----5-----6--x-x-7--5--7--|
----------3-------x--3--|--3----L--2-----------|----------3-----------|-----5-----6--x-x-7-----7--|


                     PM                        PM                         
  Q    E  E  Q    E  E     E  E  E  E  Q    E  E     Q    E  E  H         
----------3-------------|--3--3--3----------------|----------3-----------|
----------3-------------|--3--3--3--3-------------|----------3-----------|
----------0-------------|--0--0--0--2-------------|----------0-----------|
--2----L--0-------------|--0--0--0--0-------------|--2----L--0-----------|
--0----L----------------|-------------------x-----|--0----L--------------|
----------3----------3--|--3--3--3--2-------x--0--|----------3-----------|


                  PM                                                   PM PM PM  
  E  E  E  E  S S E  E  E     Q    E  E  Q     Q        E  E  Q     E  E  E  E   
---------------------------|-------------------------|--------------------------|
---------------------------|-------------------------|--------------------------|
---------------------------|-------------------------|--------------------------|
---------------------5--5--|-------------------------|--------------------------|
-----5-----6--x-x-7--5--5--|----------2--L~----3~----|--L-----------------------|
-----5-----6--x-x-7--------|--0----L-----------------|-----3--L~----3--0--2--3--|

                                                                   Chorus 1
       PM                                                                      
  Q    E  E  Q     Q        E  E  Q     Q     Q        Q    E  E  E  E  E  E   
-------------------------|--------------------------|-------------------------|
-------------------------|--------------------------|-------------------------|
-------------------------|--------------------------|-------------------------|
-------------------------|--------------------------|--2----L-----------------|
----------2--L~----3~----|--L-----------5-----------|--0----L--3--L--0-----0--|
--0----0-----------------|-----3--L~---------12\----|-------------------3-----|


  Q     E  E  Q     E  E     Q    E  E  E  E  E  E     Q    E   E  Q     Q     
--------------------------|-------------------------|-------------------------|
--------------------------|-------------------------|-------------------------|
--------------------------|-------------------------|-------------------------|
--------------------------|--2----L-----------------|-------------------------|
-----------------------3--|--0----L--3--L--0-----0--|-------------------------|
--2~----2--1--L~----0-----|-------------------3-----|--2----2~--1--L~---------|


  Q    E  E  E  E  E  E     Q     E  E  Q     E  E     Q    E  E  E  E  E  E     W                 
-------------------------|--------------------------|-------------------------|-------------------|
-------------------------|--------------------------|-------------------------|-------------------|
-------------------------|--------------------------|-------------------------|-------------------|
--2----L-----------------|--------------------------|--2----L--------------2--|-------------------|
--0----L--3--L--0-----0--|-----------------------3--|--0----L--3--L--0-----0--|-------------------|
-------------------3-----|--2~----2--1--L~----0-----|-------------------3-----|-------------------|

Verse 2
                     PM                       PM                         
  Q    E  E  Q    E  E     Q    E  E  Q    E  E     Q    E  E  H         
----------3-------------|--3----L----------------|----------3-----------|
----------3-------------|--3----L--3-------------|----------3-----------|
----------0-------------|--0----L--2-------------|----------0-----------|
--2----2--0-------------|--0----L--0-------------|--2----L--0-----------|
--0----0----------------|------------------------|--0----L--------------|
----------3-------x--3--|--3----L--2----------0--|----------3-----------|


                  PM                                                    PM                         
  E  E  E  E  S S E  E  E     Q    E  E  H           Q    E  E  Q    E  E     Q    E  E  H         
---------------------------|----------3-----------|--3----3----------------|----------3-----------|
---------------------------|----------3-----------|--3----3--3-------------|----------3-----------|
---------------------------|----------0-----------|--0----0--2-------------|----------0-----------|
---------------------5-----|--2----L--0-----------|--0----0--0-------------|--2----L--0-----------|
-----5-----6--x-x-7--5--7--|--0----L--------------|------------------------|--0----L--------------|
-----5-----6--x-x-7-----7--|----------3-----------|--3----3--2----------0--|----------3-----------|


                  PM                                                  PM PM PM  
  E  E  E  E  S S E  Q       Q    E  E  Q     Q        E  E  Q     E  E  E  E   
--------------------------|-------------------------|--------------------------|
--------------------------|-------------------------|--------------------------|
--------------------------|-------------------------|--------------------------|
---------------------5----|-------------------------|--------------------------|
-----5-----6--x-x-7--5----|----------2--L~----3~----|--L-----------------------|
-----5-----6--x-x-7-------|--0----L-----------------|-----3--L~----3--0--2--3--|

                                                                   Chorus 2
       PM                                                                      
  Q    E  E  Q     Q        E  E  Q     Q     Q        Q    E  E  E  E  E  E   
-------------------------|--------------------------|-------------------------|
-------------------------|--------------------------|-------------------------|
-------------------------|--------------------------|-------------------------|
-------------------------|--------------------------|--2----L-----------------|
----------2--L~----3~----|--L-----------5-----------|--0----L--3--L--0-----0--|
--0----0-----------------|-----3--L~---------12\----|-------------------3-----|


  Q     E  E  Q     E  E     Q    E  E  E  E  E  E     Q    E   E  Q     Q     
--------------------------|-------------------------|-------------------------|
--------------------------|-------------------------|-------------------------|
--------------------------|-------------------------|-------------------------|
--------------------------|--2----L-----------------|-------------------------|
-----------------------3--|--0----L--3--L--0-----0--|-------------------------|
--2~----2--1--L~----0-----|-------------------3-----|--2----2~--1--L~---------|


  Q    E  E  E  E  E  E     Q     E  E  Q     E  E     Q    E  E  E  E  E  E   
-------------------------|--------------------------|-------------------------|
-------------------------|--------------------------|-------------------------|
-------------------------|--------------------------|-------------------------|
--2----L-----------------|--------------------------|--2----2--------------2--|
--0----L--3--L--0-----0--|-----------------------3--|--0----0--3--L--0-----0--|
-------------------3-----|--2~----2--1--L~----0-----|-------------------3-----|

                            Guitar Solo
                   PM                                                                
  H        Q    E  E     W                   H.           E  E     W                 
----------------------|-------------------|---------------------|-------------------|
----------------------|-------------------|---------------------|-------------------|
----------------------|-------------------|--5------------L-----|-------------------|
----------------------|--2----------------|--5------------L-----|--2----------------|
-------------------2--|--2----------------|--3------------L-----|--2----------------|
-------------------0--|--0----------------|------------------0--|--0----------------|


                       PM                                                                
  E  E  E  E  E  E  E  E     W                   H.           E  E     W                 
--3--3--------------------|-------------------|---------------------|-------------------|
--3--3--------------------|-------------------|---------------------|-------------------|
--0--0-----5-----7--7-----|-------------------|--5------------L-----|-------------------|
-----------5-----7--7-----|--2----------------|--5------------L-----|--2----------------|
-----------3-----5--5-----|--2----------------|--3------------L-----|--2----------------|
--3--3-----------------0--|--0----------------|------------------0--|--0----------------|


                                PM PM    PM PM    PM       PM PM    PM PM    PM  
  E  E  E  E  E  E  E  E     E  E  E  E  E  E  E  E     E  E  E  E  E  E  E  E   
--3--3--------------------|--------------------------|--------------------------|
--3--3--------------------|--------------------------|--------------------------|
--0--0-----5-----7--7--7--|--------------------------|--------------------------|
-----------5-----7--7--7--|--------------------------|--------------------------|
-----------3-----5--5--5--|--2--------2--------2-----|--3--------3--------3-----|
--3--3--------------------|--0--0--0--0--0--0--0--0--|-----0--0-----0--0-----0--|


     PM PM    PM PM    PM                                 PM PM    PM PM    PM  
  E  E  E  E  E  E  E  E     E  E  E  E  E  E  Q       E  E  E  E  E  E  E  E   
--------------------------|--3--3-------------------|--------------------------|
--------------------------|--3--3-----3-----3--3----|--------------------------|
--------------------------|--0--0-----2-----2--2----|--------------------------|
--------------------------|-----------------0--0----|--------------------------|
--2--------2--------2-----|-----------3-------------|--2--------2--------2-----|
--0--0--0--0--0--0--0--0--|--3--3-------------------|--0--0--0--0--0--0--0--0--|


     PM PM    PM PM    PM       PM PM    PM PM    PM                   PM PM     
  E  E  E  E  E  E  E  E     E  E  E  E  E  E  E  E     E  E  E  E  E  E  E  E   
--------------------------|--------------------------|--3--3--------------------|
--------------------------|--------------------------|--3--3-----3--3-----------|
--------------------------|--------------------------|--0--0-----0--0--------2--|
--------------------------|--------------------------|-----------------------2--|
--3--------3--------3-----|--2--------2--------2-----|-----------3--3--------0--|
-----0--0-----0--0-----0--|--0--0--0--0--0--0--0--0--|--3--3-----------3--3-----|


          <                             PM               PM                 
  Q    E  E  Q    Q       E  E  Q    E  E  E  E     Q    E  E  Q     Q      
-----------------------|-------------------------|-------------------------|
-----------------------|-------------------------|-------------------------|
-----------------------|-------------------------|-------------------------|
-----------------------|-------------------------|-------------------------|
----------2--L----3----|--L----------------------|----------2--L~----3~----|
-----------------------|-----3--L----3--0--2--3--|--0----0-----------------|


                                                                    PM PM PM  
  E  E  Q     H            Q    E  E  Q     Q        E  E  Q     E  E  E  E   
------------------------|-------------------------|--------------------------|
------------------------|-------------------------|--------------------------|
------------------------|-------------------------|--------------------------|
------------------------|----------4--L~----5~----|--L-----------------------|
--L-----------5~--------|--2----L--2--L~----3~----|--L--5--L~----5-----------|
-----3--L~--------------|--0----L-----------------|-----3--L~----3--0--2--3--|

                                                               Chorus 3
       PM                                                                   
  Q    E  E  Q     Q        E  E  Q     H           Q    E  E  E  E  E  E   
-------------------------|-----------------------|-------------------------|
-------------------------|-----------------------|-------------------------|
-------------------------|-----------------------|-------------------------|
----------4--L~----5~----|--L-----------7--------|--2----L-----------------|
--2----2--2--L~----3~----|--L--5--L~----5--------|--0----L--3--L--0-----0--|
--0----0-----------------|-----3--L~-------------|-------------------3-----|


  Q     E  E  Q     E  E     Q    E  E  E  E  E  E     Q    E   E  Q     Q     
--------------------------|-------------------------|-------------------------|
--------------------------|-------------------------|-------------------------|
--------------------------|-------------------------|-------------------------|
--------------------------|--2----2-----------------|-------------------------|
-----------------------3--|--0----0--3--L--0-----0--|-------------------------|
--2~----2--1--L~----0-----|-------------------3-----|--2----2~--1--L~---------|


  Q    E  E  E  E  E  E     Q     E  E  Q     E  E     Q    E  E  E  E  E  E   
-------------------------|--------------------------|-------------------------|
-------------------------|--------------------------|-------------------------|
-------------------------|--------------------------|-------------------------|
--2----L-----------------|--------------------------|--2----2--------------2--|
--0----L--3--L--0-----0--|-----------------------3--|--0----0--3--L--0-----0--|
-------------------3-----|--2~----2--1--L~----0-----|-------------------3-----|


  H        Q    E  E     Q    E  E  E  E  E  E     Q     E  E  Q     E  E   
----------------------|-------------------------|--------------------------|
----------------------|-------------------------|--------------------------|
----------------------|-------------------------|--------------------------|
----------------2--2--|--2----L-----------------|--------------------------|
----------------0--0--|--0----L--3--L--0-----0--|-----------------------3--|
----------------------|-------------------3-----|--2~----2--1--L~----0-----|


  Q    E  E  E  E  E  E     Q    E   E  Q     Q       Q    E  E  E  E  E  E   
-------------------------|-------------------------|-------------------------|
-------------------------|-------------------------|-------------------------|
-------------------------|-------------------------|-------------------------|
--2----2-----------------|-------------------------|--2----L-----------------|
--0----0--3--L--0-----0--|-------------------------|--0----L--3--L--0-----0--|
-------------------3-----|--2----2~--1--L~---------|-------------------3-----|


  Q     E  E  Q     E  E     Q    E  E  E  E  E  E     Q     E  E  Q     E  E   
--------------------------|-------------------------|--------------------------|
--------------------------|-------------------------|--------------------------|
--------------------------|-------------------------|--------------------------|
--------------------------|--2----2--------------2--|-----------------------2--|
-----------------------3--|--0----0--3--L--0-----0--|-----------------------0--|
--2~----2--1--L~----0-----|-------------------3-----|--2~----2--1--L~----0-----|


  Q    Q    H           W                   W                   W                 
---------------------|-------------------|-------------------|-------------------|
---------------------|-------------------|-------------------|-------------------|
---------------------|-------------------|-------------------|-------------------|
--2------------------|-------------------|-------------------|-------------------|
--0------------------|-------------------|-------------------|-------------------|
---------------------|-------------------|-------------------|-------------------|


  W                   W                  
-------------------|-------------------||
-------------------|-------------------||
-------------------|-------------------||
-------------------|-------------------||
-------------------|-------------------||
-------------------|-------------------||



Lead Guitar

m.58
                                 /1\              \1/           tr                 
   |----3----|    |----3----|                                                      
   E    E    E    E    E    E    H                H             Q         E   E    
----------------------------------------------|-----------------------------------|
--12h--15p--12h--15p--12h--15p--12(15)--------|--12(15)--------12(15)-----L--15b--|
----------------------------------------------|-----------------------------------|
----------------------------------------------|-----------------------------------|
----------------------------------------------|-----------------------------------|
----------------------------------------------|-----------------------------------|


   Q      E   E   E   E    Q      
-------------12--15--15b---L~----|
---L~-----L----------------------|
---------------------------------|
---------------------------------|
---------------------------------|
---------------------------------|


   next 2 ms. single picked, slightly choppy                                              
   |----------------------3----------------------|   |---3---|   |---3---|   |----3---|   
   E                                         E   E   E   E   E   E   E   E   E    E   E   
--15b----------------------------------------L---L--14--15--14-------------------12------|
----------------------------------------------------------------15--17--12--15b------15--|
-----------------------------------------------------------------------------------------|
-----------------------------------------------------------------------------------------|
-----------------------------------------------------------------------------------------|
-----------------------------------------------------------------------------------------|


                              W              PH                  W                       
   |----3---|   |---3---|                                                     |---3---|  
   E    E   E   E   E   E     H              S     S  E   Q      E  S S S   S S   S   S  
---------------------------<>12--------|--<>12brb--L--L---L~-----L----------------------|
--12p--11------12--10--11--------------|------------------------------------------------|
-----------14--------------------------|------------------------------------------------|
---------------------------------------|--------------------------------------9h-10h-12-|
---------------------------------------|----------------------------7-7-L-/12-----------|
---------------------------------------|------------------------------------------------|


   T                      T              T                                                          
                                            |---3---|  |---3---|                                    
   T   T   T  T   T   T   S  T   T   T   T  S   S   S  S   S   S  E    Q         W                  
----------------------------------------------------------------------22b----|---L~----------------|
-------------------------------------------13h-15h-17-17p-15p-13-15/---------|---------------------|
----------------------------11h-12h-14h-16-----------------------------------|---------------------|
--14p-12p-10p-9h-10h-12h-14--------------------------------------------------|---------------------|
-----------------------------------------------------------------------------|---------------------|
-----------------------------------------------------------------------------|---------------------|


m.95                                                                        |-----5-----|  
  W                   W                    S  S  S  S  Q       S  E.    S  S  S  S  S  
-------------------|-------------------|--17-17---------------17-------17-------------|
-------------------|-------------------|--------20-17-20b~-------20b------20-17-------|
-------------------|-------------------|----------------------------------------20-19-|
-------------------|-------------------|----------------------------------------------|
-------------------|-------------------|----------------------------------------------|
-------------------|-------------------|----------------------------------------------|


                                   |--3--|  |----3---|               
   S  S  T   T   S  T  T  S  S  S  S  S  S  S     S  S  S  S   S  S  
--------------------------------------------------------------------|
--17-17------------19-19--------------------------------------------|
--------20p-19p-17-19-19----17-18-----------------------------------|
-------------------------19-------19-17----17-----------------------|
----------------------------------------19----19g17-15-17-17p-15----|
-----------------------------------------------------------------17-|


                                                |--3--|     |--3--|     |--3--|          
   S  E.   S S S  S S   T  T S S E   S S    E   S  S  S E   S  S  S E   S  S  S S S S S  
-------------------------------5-----5-x-|--8b--5h-8p-5-8b--5h-8p-5-8b--5h-8p-5---5-7-8-|
-----------8-5-7h-8-8br-Lp-5-8---8b------|--------------------------------------7-------|
-----------------------------------------|--------------------------------------7-------|
-----------------------------------------|----------------------------------------------|
--15-------------------------------------|----------------------------------------------|
-----17~---------------------------------|----------------------------------------------|


                                                         W               
  S S S S S S   T T S  T T S S S T  T S S S     S  S E   Q    H          
--7-5-----5----------------------------------|-------------------------||
------8-5---8br-L-5--------------------------|-------------------------||
--------------------8b-8-5---7-5-------------|-------------------------||
---------------------------7-----7p-5--------|-------------------------||
--------------------------------------7-5-7S-|--5p-3-5~--L-------------||
---------------------------------------------|-------------------------||



Clean Guitar

m.55
  W                   W                   Q    E  E  E  E  Q       Q    E  E  E  E  Q     
-------------------|-------------------|----------0--L----------|----------0--L----------|
-------------------|-------------------|----------------0--L----|----------------3--L----|
-------------------|-------------------|-------4----------------|-------4----------------|
-------------------|-------------------|------------------------|------------------------|
-------------------|-------------------|------------------------|------------------------|
-------------------|-------------------|------------------------|------------------------|


  Q    E  E  E  E  Q       W                   Q    E  E  E  E  Q       Q    E  E  E  E  Q     
----------0--L----------|-------------------|----------0--L----------|----------0--L----------|
----------------0--L----|-------------------|----------------0--L----|--L-------------3--L----|
-------4----------------|-------------------|-------4----------------|-------4----------------|
------------------------|-------------------|------------------------|------------------------|
------------------------|-------------------|------------------------|------------------------|
------------------------|-------------------|------------------------|------------------------|


  Q    E  E  E  E  Q       W                   W                   W                 
----------0--L----------|-------------------|-------------------|-------------------|
--L-------------0--L----|-------------------|-------------------|-------------------|
-------4----------------|-------------------|-------------------|-------------------|
------------------------|-------------------|-------------------|-------------------|
------------------------|-------------------|-------------------|-------------------|
------------------------|-------------------|-------------------|-------------------|



m.72                slight distortion
  W                   E  E  E  E  E  E   E   E      E  E  E  E  E  E  E  E   
-------------------|----------------------------|---------------------------|
-------------------|--9--9--9--9--9--9--10--10--|--10--8--8--8--8--8--7-----|
-------------------|--9--9--9--9--9--9---9---9--|---9--7--7--7--7--7-----9--|
-------------------|----------------------------|---------------------------|
-------------------|----------------------------|---------------------------|
-------------------|----------------------------|---------------------------|


  E  E  E  E  E  E   E   E      E  E  E  E  E  E  E  E     Q     E  E   Q    Q      
----------------------------|---------------------------|--------------------------|
--9--9--9--9--9--9--10--10--|--10--8--8--8--8--8--7-----|--5-----L--4---L----3-----|
--9--9--9--9--9--9---9---9--|---9--7--7--7--7--7-----9--|--7b----L--6b--L----5b----|
----------------------------|---------------------------|--------------------------|
----------------------------|---------------------------|--------------------------|
----------------------------|---------------------------|--------------------------|


  H        H           Q     E  E   Q    Q        H        H           W                 
--------------------|--------------------------|--------------------|-------------------|
--L--------3--------|--5-----L--4---L----3-----|--L--------3--------|-------------------|
--L-----------------|--7b----L--6b--L----5b----|--L-----------------|-------------------|
--------------------|--------------------------|--------------------|-------------------|
--------------------|--------------------------|--------------------|-------------------|
--------------------|--------------------------|--------------------|-------------------|



Duration Legend
---------------
W - whole
H - half
Q - quarter
E - 8th
S - 16th
T - 32nd
X - 64th
. - note dotted
|-n-|  - n-tuplets


Tablature Legend
----------------
L - tied note
x - dead note
g - grace note
(n) - ghost note
> - accentuded note
NH - natural harmonic
AH - artificial harmonic
TH - tapped harmonic
SH - semi harmonic
PH - pitch harmonic
h - hammer on
p - pull off
b - bend
br - bendRelease
pb - preBend
pbr - preBendRelease
brb - bendReleaseBend
\n/ - tremolo bar dip
\n - tremolo bar dive
-/n - tremolo bar Release up
/n\ - tremolo bar inverted dip
/n - tremolo bar return
-\n - tremolo bar Release down
S - shift slide
s - legato slide
/ -  slide into from below or out of upwards
\ -  slide into from above or out of downwards
~ - vibrato
W - wide vibrato
tr - trill
TP - tremolo picking
T - tapping
S - slap
P - pop
< - fade in
^ - brush up
v - brush down
            
Submit corrections

↑ Back to top | Tablatures and chords for acoustic guitar and electric guitar, ukulele, drums are parodies/interpretations of the original songs. You may use it for private study, scholarship, research or language learning purposes only