» » »

Wilson Pickett - In The Midnight Hour Tabs

Artists:  A B C D E F G H I J K L M N O P Q R S T U V W X Y Z # 

In The Midnight Hour Tabs

(ver. 1) Click to play this song!
Wilson Pickett
 Rating:
4.3/5 (26 votes)

 In The Midnight Hour lessons Tabs too difficult? Try these video lessons and learn fast
 
                  [Intro]
   Q=114
   D          B                 A         G
   4/4
  Gtr I (Clean El. Gtr.)
    H.      E E   +H.      Q    H.      E E   +W
e|-10---------7-|-(7)---------|-5---------3-|-(3)----|
B|-10---------7-|-(7)---------|-5---------3-|-(3)----|
G|-11---------8-|-(8)---------|-6---------4-|-(4)----|
D|-12---------9-|-(9)---------|-7---------5-|-(5)----|
A|-12---------9-|-(9)---------|-7---------5-|-(5)----|
E|-10---------7-|-(7)---------|-5---------3-|-(3)----|


                                        [1st & 2nd Verses]
       E        A         E        A           E        A         E        A
   Q    e Q   E e E   Q    e Q   E e E     Q    e Q   E e E   Q    e Q   E e E
e|-----12-------5---|-----12-------5---||------12-------5---|-----12-------5----|
B|-----12-------5---|-----12-------5---||o-----12-------5---|-----12-------5----|
G|-----13-------6---|-----13-------6---||------13-------6---|-----13-------6----|
D|------------------|------------------||-------------------|-------------------|
A|------------------|------------------||o------------------|-------------------|
E|------------------|------------------||-------------------|-------------------|
 |
 | Gtr II (Clean El. Gtr.)                
 | Q.     E E E Q     Q.     E E E Q       Q.     E E E Q     Q.     E E E Q
e|------------------|------------------||-------------------|-------------------|
B|------------------|------------------||o------------------|-------------------|
G|------------------|------------------||-------------------|-------------------|
D|------------------|------------------||-------------------|-------------------|
A|-7----------------|-7----------------||o-7----------------|-7-----------------|
E|--------7-5-5-----|--------7-5-5-----||---------7-5-5-----|--------7-5-5------|


       E        A         E        A         E        A         E        A
   Q    e Q   E e E   Q    e Q   E e E   Q    e Q   E e E   Q    e Q   E e E
e|-----12-------5---|-----12-------5---|-----12-------5---|-----12-------5----|
B|-----12-------5---|-----12-------5---|-----12-------5---|-----12-------5----|
G|-----13-------6---|-----13-------6---|-----13-------6---|-----13-------6----|
D|------------------|------------------|------------------|-------------------|
A|------------------|------------------|------------------|-------------------|
E|------------------|------------------|------------------|-------------------|
 |
 | Q.     E E E Q     Q.     E E E Q     Q.     E E E Q     Q.     E E E Q
e|------------------|------------------|------------------|-------------------|
B|------------------|------------------|------------------|-------------------|
G|------------------|------------------|------------------|-------------------|
D|------------------|------------------|------------------|-------------------|
A|-7----------------|-7----------------|-7----------------|-7-----------------|
E|--------7-5-5-----|--------7-5-5-----|--------7-5-5-----|--------7-5-5------|


       E        A         E        A         B                 A
   Q    e Q   E e E   Q    e Q   E e E   Q   e q   e e E   Q   e E Q  e E
e|-----12-------5---|-----12-------5---|-----7-------7---|-----5------5----|
B|-----12-------5---|-----12-------5---|-----7-------7---|-----5------5----|
G|-----13-------6---|-----13-------6---|-----8-------8---|-----6------6----|
D|------------------|------------------|-----------------|-----------------|
A|------------------|------------------|-----------------|-----------------|
E|------------------|------------------|-----------------|-----------------|
 |
 | Q.     E E E Q     Q.     E E E Q     Q.    E Q   E E   Q.    E Q  E E
e|------------------|------------------|-----------------|-----------------|
B|------------------|------------------|-----------------|-----------------|
G|------------------|------------------|-----------------|-----------------|
D|------------------|------------------|-9-------9---9---|-7-------7--7----|
A|-7----------------|-7----------------|-9-------9---9---|-7-------7--7----|
E|--------7-5-5-----|--------7-5-5-----|-7-------7---7---|-5-------5--5----|


       B                 A                E        A
   Q   e q   e e E   Q   e E Q  e E   Q    e Q   E e E
e|-----7-------7---|-----5------5---|-----12-------5---|
B|-----7-------7---|-----5------5---|-----12-------5---|
G|-----8-------8---|-----6------6---|-----13-------6---|
D|-----------------|----------------|------------------|
A|-----------------|----------------|------------------|
E|-----------------|----------------|------------------|
 |
 | Q.    E Q   E E   Q.    E Q  E E   Q.     E E E Q
e|-----------------|----------------|------------------|
B|-----------------|----------------|------------------|
G|-----------------|----------------|------------------|
D|-9-------9---9---|-7-------7--7---|------------------|
A|-9-------9---9---|-7-------7--7---|-7----------------|
E|-7-------7---7---|-5-------5--5---|--------7-5-5-----|


       E        A         E        A
   Q    e Q   E e E   Q    e Q   E e E
e|-----12-------5---|-----12-------5-----|
B|-----12-------5---|-----12-------5-----|
G|-----13-------6---|-----13-------6-----|
D|------------------|--------------------|
A|------------------|--------------------|
E|------------------|--------------------|
 |
 | Q.     E E E Q     Q.     E E E Q
e|------------------|--------------------|
B|------------------|--------------------|
G|------------------|--------------------|
D|------------------|--------------------|
A|-7----------------|-7------------------|
E|--------7-5-5-----|--------7-5-5-------|


   1.                                  2.
   D              B                     D                     B
   Gtrs I, II                           Gtrs I, II
    Q   Q   Q   E E   +Q   Q  Q  Q        Q    Q    Q    Q    Q  Q  E S S E E
e|-10--10--10--10-7-|-(7)--7--7--7---||-/10--/10--/10--/10--|-7--7--7-x-7---x-||
B|-10--10--10--10-7-|-(7)--7--7--7--o||-/10--/10--/10--/10--|-7--7--7-x-7---x-||
G|-11--11--11--11-8-|-(8)--8--8--8---||-/11--/11--/11--/11--|-8--8--8-x-8---x-||
D|-12--12--12--12-9-|-(9)--9--9--9---||-/12--/12--/12--/12--|-9--9--9-x-9---x-||
A|-12--12--12--12-9-|-(9)--9--9--9--o||-/12--/12--/12--/12--|-9--9--9-x-9---x-||
E|-10--10--10--10-7-|-(7)--7--7--7---||-/10--/10--/10--/10--|-7--7--7-x-7---x-||


 [Bridge]
       E          A          E          A
  Gtr I
    Q   e Q     E e E    Q    e Q     E e  E
e|-----12---------5---|------12---------5----|
B|-----12---------5---|------12---------5----|
G|-----13---------6---|------13---------6----|
D|--------------------|----------------------|
A|--------------------|----------------------|
E|--------------------|----------------------|
 |
 | Gtr III (Horns arr. for Gtr.)
 |  H        E  E E E   +Q    Q    E  E E  E
e|--------------------|----------------------|
B|-12-------10-10---9-|-(9)-------10-10---12-|
G|--------------------|----------------------|
D|--9--------7--7---6-|-(6)--------7--7----9-|
A|--------------------|----------------------|
E|--------------------|----------------------|


    E5          D5         B
     Q    e  E  Q   e E    Q  Q   Q    Q
e|----------------------|--7--7---7----7-----|
B|----------------------|--7--7---7----7-----|
G|----------------------|--8--8---8----8-----|
D|----------------------|--9--9---9----9-----|
A|--14---14----12--12---|--9--9---9----9-----|
E|--12---12----10--10---|--7--7---7----7-----|
 |
 |  +Q    E  E  Q   E E    Q  Q   E  E E  E
e|----------------------|--------------------|
B|-(12)--10----10-------|--------10-10---12--|
G|----------11-----11-9-|-11-----------------|
D|--(9)---7-----7-------|---------7--7----9--|
A|-----------9------9-7-|--9-----------------|
E|----------------------|--------------------|


          E          A          E           D
     Q    e q     e e e    q    e q    e    e   e
e|-------12---------5---|------12----------10-----|
B|-------12---------5---|------12----------10-----|
G|-------13---------6---|------13----------11-----|
D|----------------------|-------------------------|
A|----------------------|-------------------------|
E|----------------------|-------------------------|
 |
 |                                   |---3----|
 |  +Q    Q    E  E E E   +Q    Q    Q   Q    Q
e|----------------------|-------------------------|
B|-(12)-------10-10---9-|-(9)-------10------------|
G|----------------------|----------------7----7---|
D|--(9)--------7--7---6-|-(6)--------7------------|
A|----------------------|----------------5----5---|
E|----------------------|-------------------------|


      E       A     B
   q   e q  e e E   Q  Q  Q  Q
e|----12------5---|-7--7--7--7---||
B|----12------5---|-7--7--7--7---||
G|----13------6---|-8--8--8--8---||
D|----------------|-9--9--9--9---||
A|----------------|-9--9--9--9---||
E|----------------|-7--7--7--7---||
 |
 | W                W
e|----------------|--------------||
B|----------------|--------------||
G|-9--------------|--------------||
D|----------------|--------------||
A|-7--------------|--------------||
E|----------------|--------------||


  [Outro]
         E        A         E        A
     Q    e Q   E e E   Q    e Q   E e E
e||------12-------5---|-----12-------5---|
B||o-----12-------5---|-----12-------5---|
G||------13-------6---|-----13-------6---|
D||-------------------|------------------|
A||o------------------|------------------|
E||-------------------|------------------|
 |
 |   Gtr II
 |   Q.     E E E Q     Q.     E E E Q
e||-------------------|------------------|
B||o------------------|------------------|
G||-------------------|------------------|
D||-------------------|------------------|
A||o-7----------------|-7----------------|
E||---------7-5-5-----|--------7-5-5-----|


       E        A         E        A
   Q    e Q   E e E   Q    e Q   E e E  4x
e|-----12-------5---|-----12-------5----||
B|-----12-------5---|-----12-------5---o||
G|-----13-------6---|-----13-------6----||
D|------------------|-------------------||
A|------------------|------------------o||
E|------------------|-------------------||
 |
 | Q.     E E E Q     Q.     E E E Q    4x
e|------------------|-------------------||
B|------------------|------------------o||
G|------------------|-------------------||
D|------------------|-------------------||
A|-7----------------|-7----------------o||
E|--------7-5-5-----|--------7-5-5------||            
Submit corrections


        In The Midnight Hour lessons Hard to play? Try these video lessons and learn fast In The Midnight Hour lessons
        
↑ Back to top | Tablatures and chords for acoustic guitar and electric guitar, ukulele, drums are parodies/interpretations of the original songs. You may use it for private study, scholarship, research or language learning purposes only